TAB

            Icp

9.Love


Intro:
e|-----------------------------------------------------|
B|-----------------------------------------------------|
G|-9~~~~\-9~~~~\-9~~~~~\-9~~~~~~~~~\-------------------|
D|-9~~~~\-9~~~~\-9~~~~~\-9~~~~~~~~~\-------------------|
A|-7~~~~\-7~~~~\-7~~~~~\-7~~~~~~~~~\-------------------|
E|-----------------------------------------------------|


verse 1:
e|-----------------------------------------------------|
B|-----------------------------------------------------|
G|-----------------------------------------------------|
D|--9-9-9-9-7-9-10-9-----------------------------------|
A|--7-7-7-7-5-7-8--7-----------------------------------|
E|-----------------------------------------------------|
  Pm----------------|
                    Repeat(15x)
	On the 9th time you repeated the measure above
	The Keyboard comes in but i have tabbed out so
	that you can play it on the guitar.

e|-----------------------------------------------------|
B|-----------------------------------------------------|
G|--9v~~/16v-14/16v-14v-12/14v-14/12v-9v---------------|
D|-----------------------------------------------------|
A|-----------------------------------------------------|
E|-----------------------------------------------------|




Chorus 1:
e|-----------------------------------------------------|
B|-----------------------------------------------------|
G|-9----9----9-----9----9---9-----9----9---------------|
D|-9----9----9-----9----9---9-----9----9---------------|
A|-7----7----7-----7----7---7-----7----7---------------|
E|-----------------------------------------------------|
let ring----------------------------------|


verse 2:
e|-----------------------------------------------------|
B|-----------------------------------------------------|
G|-----------------------------------------------------|
D|--9-9-9-9-7-9-10-9-----------------------------------|
A|--7-7-7-7-5-7-8--7-----------------------------------|
E|-----------------------------------------------------|
  Pm----------------|

Repeat(14x)
	On the 8th time you repeated the measure above
	The Keyboard comes in but i have tabbed out so
	that you can play it on the guitar.

e|-----------------------------------------------------|
B|-----------------------------------------------------|
G|--9v~~/16v-14/16v-14v-12/14v-14/12v-9v---------------|
D|-----------------------------------------------------|
A|-----------------------------------------------------|
E|-----------------------------------------------------|


Chorus 2:
e|-----------------------------------------------------|
B|-----------------------------------------------------|
G|-9----9----9-----9----9---9-----9----9---------------|
D|-9----9----9-----9----9---9-----9----9---------------|
A|-7----7----7-----7----7---7-----7----7---------------|
E|-----------------------------------------------------|
let ring----------------------------------|


Breakdown:
e|-----------------------------------------------------|
B|-----------------------------------------------------|
G|-----------------------------------------------------|
D|-----------------------------------------------------|
A|-----------------------------------------------------|
E|-----------------------------------------------------|
		       Repeat(8x)

Love!
e|-----------------------------------------------------|
B|-----------------------------------------------------|
G|-----------------------------------------------------|
D|--9-9-9-9-7-9-10-9-----------------------------------|
A|--7-7-7-7-5-7-8--7-----------------------------------|
E|-----------------------------------------------------|
  Pm----------------|
		       Repeat(7x)
Chorus 3:
e|-----------------------------------------------------|
B|-----------------------------------------------------|
G|-9----9----9-----9----9---9-----9----9---------------|
D|-9----9----9-----9----9---9-----9----9---------------|
A|-7----7----7-----7----7---7-----7----7---------------|
E|-----------------------------------------------------|
let ring----------------------------------|

Breakdown 2:
e|-----------------------------------------------------|
B|-----------------------------------------------------|
G|-----------------------------------------------------|
D|-----------------------------------------------------|
A|-----------------------------------------------------|
E|-----------------------------------------------------|


Chorus 4:
e|-----------------------------------------------------|
B|-----------------------------------------------------|
G|-9----9----9-----9----9---9-----9----9---------------|
D|-9----9----9-----9----9---9-----9----9---------------|
A|-7----7----7-----7----7---7-----7----7---------------|
E|-----------------------------------------------------|
let ring----------------------------------|


Love!!!! Mcl!!! From Your Juggalo Gage MKL    

Added On December 16th, 2013

SHARE

Comments

blog comments powered by Disqus

ADVERTISEMENT