Insane Clown Posse Tabs

Zombie Slide

1 versions

TAB

            Intro:
e|-14b--(1/2 step)-------------------------------------|
B|-----------------------------------------------------|
G|-----------------------------------------------------|
D|-----------------------------------------------------|
A|-----------------------------------------------------|
E|-----------------------------------------------------|

(Keyboards put into guitar)
e|-----------------------------------------------------|
B|--------12-10----------------------------------------|
G|-9--12----------9------------------------------------|
D|-----------------------------------------------------|
A|-----------------------------------------------------|
E|-----------------------------------------------------|



verse 1:
e|--------------------|
B|--------------------|
G|--------------------|
D|--9-7-9-------------|
A|--7-5-7-------------|
E|--------------------|
  (Repeat 5x)


Chorus 1:

(Keyboards put into guitar)
e|-----------------------------------------------------|
B|--------12-10----------------------------------------|
G|-9--12----------9------------------------------------|
D|-----------------------------------------------------|
A|-----------------------------------------------------|
E|-----------------------------------------------------|
      (Repeat 2x)


verse 2:
e|--------------------|
B|--------------------|
G|--------------------|
D|--9-7-9-------------|
A|--7-5-7-------------|
E|--------------------|


e|-0---------------------------------------------------|
B|-0-tremolo bar being played with---------------------|
G|-0---------------------------------------------------|
D|-----------------------------------------------------|
A|-----------------------------------------------------|
E|------------------------------------0~~~~~~~~--------|



Chorus 2:

(Keyboards put into guitar)
e|-----------------------------------------------------|
B|--------12-10----------------------------------------|
G|-9--12----------9------------------------------------|
D|-----------------------------------------------------|
A|-----------------------------------------------------|
E|-----------------------------------------------------|
      (Repeat 2x)



Chorus 2:

(Keyboards put into guitar)
e|-----------------------------------------------------|
B|--------12-10----------------------------------------|
G|-9--12----------9------------------------------------|
D|-----------------------------------------------------|
A|-----------------------------------------------------|
E|-----------------------------------------------------|
      (Repeat)

Solo:
e|-------------------|----------------------------------|
B|-------------------|----------------------------------|
G|-9-7-9-7-9---------|----------------------------------|
D|------------9-7-9--|-99999999-777-55-7----------------|
A|-------------------|----------------------------------|
E|-------------------|----------------------------------|
       (Repeat 4x)        ONLY DO THE FRIST TIME!

      Wha-padel

Solo 2:
e|---------(12)-----------10-1010----------------------|
B|-10h12----------10h12--------------------------------|
G|-----------------------------------------------------|
D|-----------------------------------------------------|
A|-----------------------------------------------------|
E|-----------------------------------------------------|

e|-------10-12-10---------|
B|-10h12----------12-10---|
G|------------------------|
D|------------------------|
A|------------------------|
E|------------------------|
       ^repeat this part till end!    

Added On December 16th, 2013

SHARE

Comments

blog comments powered by Disqus

ADVERTISEMENT