TAB

            Intro
GTR I
|--------------------------------------------------------------------------|
|--------------------------------------------------------------------------|
|--------------------------------------------------------------------------|
|---------------------------------------------------------------3-2--------|
|------10---8---7t8r7-----8---7---5t7r5-----3---5---0h2h3-----3-------5-3--|
|--7-7----7---7-------5-5---5---5-------3-3---3---3-------0-2-------4------|x4
   . .    .   .       . .   .   .       . .   .   .       . .       .

Verse
GTRS I&II
|---------------------------------------------------------|
|---------------------------------------------------------|
|---------------------------------------------------------|
|-----------9-----------7-----------5---------------------|
|-----------7-----------5-----------3---------------------|
|--77777777----55555555----33333333----00000000-22222222--|x4
   ........    ........    ........    ........ ........

|------------------------------------------------------------------|
|------------------------------------------------------------------|
|------------------------------------------------------------------|
|-----------9-9-9----------7-7-7----------5-5-5--------------------|
|-----------7-7-7----------5-5-5----------3-3-3--------------------|
|--77777777-------55555555-------33333333-------00000000-22222222--|x2
   ........       ........       ........       ........ ........

|---------------------------------------------------------|
|---------------------------------------------------------|
|---------------------------------------------------------|
|-----------9-----------7-----------5---------------------|
|-----------7-----------5-----------3---------------------|
|--77777777----55555555----33333333----00000000-22222222--|x4
   ........    ........    ........    ........ ........

Pre-chorus
|---------------|
|---------------|
|---------------|
|--0-2-3-5-3-2--|
|--0-2-3-5-3-2--|
|--0-2-3-5-3-2--|

Chorus
|----------------------------------------------------------|
|----------------------------------------------------------|
|----------------------------------------------------------|
|--0-0-0--0-0-0--8-8-8--8-8-8--5-5-5--5-5-5--3-3-3--2-2-2--|
|--0-0-0--0-0-0--8-8-8--8-8-8--5-5-5--5-5-5--3-3-3--2-2-2--|
|--0-0-0--0-0-0--8-8-8--8-8-8--5-5-5--5-5-5--3-3-3--2-2-2--|x2

Verse
GTRS I&II
|---------------------------------------------------------|
|---------------------------------------------------------|
|---------------------------------------------------------|
|-----------9-----------7-----------5---------------------|
|-----------7-----------5-----------3---------------------|
|--77777777----55555555----33333333----00000000-22222222--|x4
   ........    ........    ........    ........ ........

|------------------------------------------------------------------|
|------------------------------------------------------------------|
|------------------------------------------------------------------|
|-----------9-9-9----------7-7-7----------5-5-5--------------------|
|-----------7-7-7----------5-5-5----------3-3-3--------------------|
|--77777777-------55555555-------33333333-------00000000-22222222--|x2
   ........       ........       ........       ........ ........

|---------------------------------------------------------|
|---------------------------------------------------------|
|---------------------------------------------------------|
|-----------9-----------7-----------5---------------------|
|-----------7-----------5-----------3---------------------|
|--77777777----55555555----33333333----00000000-22222222--|x4
   ........    ........    ........    ........ ........

Pre-chorus
|---------------|
|---------------|
|---------------|
|--0-2-3-5-3-2--|
|--0-2-3-5-3-2--|
|--0-2-3-5-3-2--|

Chorus
|----------------------------------------------------------|
|----------------------------------------------------------|
|----------------------------------------------------------|
|--0-0-0--0-0-0--8-8-8--8-8-8--5-5-5--5-5-5--3-3-3--2-2-2--|
|--0-0-0--0-0-0--8-8-8--8-8-8--5-5-5--5-5-5--3-3-3--2-2-2--|
|--0-0-0--0-0-0--8-8-8--8-8-8--5-5-5--5-5-5--3-3-3--2-2-2--|x2

|------------------------------------------------------------|
|------------------------------------------------------------|
|------------------------------------------------------------|
|--0-0-0--0-0-0--8-8-8--12-10-8--8-8-8--8-8-8--7-7-7--5-5-5--|
|--0-0-0--0-0-0--8-8-8--8--8--8--5-5-5--5-5-5--3-3-3--3-3-3--|
|--0-0-0--0-0-0--8-8-8--8--8--8--5-5-5--5-5-5--3-3-3--2-2-2--|x2

Solo

GTR II
|-------------------------------------------------------------------|
|-------------------------------------------------------------------|
|-------------------------------------------------------------------|
|--0-0-0-0-0-0-0-0-8-8-8-8-8-8-8-8-5-5-5-5-5-5-5-5-3-3-3-3-2-2-2-2--|
|--0-0-0-0-0-0-0-0-8-8-8-8-8-8-8-8-5-5-5-5-5-5-5-5-3-3-3-3-2-2-2-2--|
|--0-0-0-0-0-0-0-0-8-8-8-8-8-8-8-8-5-5-5-5-5-5-5-5-3-3-3-3-2-2-2-2--|x2

GTR I
|-----------------------------------------------------|
|-o-181715--1515181715--1515181715--1515181715--1515--|
|---------17----------17----------17----------17------|
|-----------------------------------------------------|
|-o---------------------------------------------------|
|-----------------------------------------------------|

|----------------------------------------------------|
|----------------------------------------------------|
|--181715--1515181715--1515181715--1515181715--1515--|
|--------17----------18----------17----------18------|
|----------------------------------------------------|
|----------------------------------------------------|

|----------------------------------------------------|
|--151412--1212151412--1212151412--1212151412--1212--|
|--------14----------15----------14----------15------|
|----------------------------------------------------|
|----------------------------------------------------|
|----------------------------------------------------|

|--151412--1212151412--1212161513--13131518171521b------|
|--¬------14----------15----------15----------------o---|
|-------------------------------------------------------|
|-------------------------------------------------------|
|--------------------------------------------------o----|
|-------------------------------------------------------|

GTRI
||----------13-17-15-13-12-13--------12-15-13-12-10-12------|
||-o-¬/15-15-------------------/13-13-------------------o---|
||----------------------------------------------------------|
||----------------------------------------------------------|
||-o---------------------------------------------------o----|
||----------------------------------------------------------|
|
|GTRII
||----------8-12-10-8-7-8------7-10-8-7-5-7------|
||-o-/10¬-10---------------/8-8--------------o---|
||-----------------------------------------------|
||-----------------------------------------------|
||-o----------------------------------------o----|
||-----------------------------------------------|

Chorus
|----------------------------------------------------------|
|----------------------------------------------------------|
|----------------------------------------------------------|
|--0-0-0--0-0-0--8-8-8--8-8-8--5-5-5--5-5-5--3-3-3--2-2-2--|
|--0-0-0--0-0-0--8-8-8--8-8-8--5-5-5--5-5-5--3-3-3--2-2-2--|
|--0-0-0--0-0-0--8-8-8--8-8-8--5-5-5--5-5-5--3-3-3--2-2-2--|x2

|------------------------------------------------------------|
|------------------------------------------------------------|
|------------------------------------------------------------|
|--0-0-0--0-0-0--8-8-8--12-10-8--8-8-8--8-8-8--7-7-7--5-5-5--|
|--0-0-0--0-0-0--8-8-8--8--8--8--5-5-5--5-5-5--3-3-3--3-3-3--|
|--0-0-0--0-0-0--8-8-8--8--8--8--5-5-5--5-5-5--3-3-3--2-2-2--|x2

|----------|
|----------|
|----------|
|--0~~~~---|
|--0~~~~---|
|--0~~~~---|    

Added On December 16th, 2013

SHARE

Comments

blog comments powered by Disqus

ADVERTISEMENT