Itchy Poopzkid Tabs

Independent

1 versions

TAB

            Itchy Poopzkid – Independent


Intro/Verse part 1:
E|--------2--------2--------2--------2------------------|
B|------4---4----4---4----4---4----4---4----------------|
G|----4--------4----------------------------------------|
D|----------------------2--------4----------------------|
A|------------------------------------------------------|
E|------------------------------------------------------|

Verse part 2:
E|--------------------------------------------------|
B|--------------------------------------------------|
G|---4----------------------------------------------|
D|---4------2----4----------------------------------|
A|---2------2----4----------------------------------|
E|----------0----2----------------------------------|
    pm…………………………………………………

Pre-chorus
E|------------------------------------------------------|
B|------------------------------------------------------|
G|------------------------------------------------------|
D|---4------2-----4-----6-----4-------------------------|
A|---4------2-----4-----6-----4-------------------------|
E|---2------0-----2-----4-----2-------------------------|
     pm........................
       ................ 2nd time open from here

Chorus
E|----------------------------------------------|
B|----------------------------------------------|
G|---4------------------------------------------|
D|---4------4----2------------------------------|
A|---2------4----2------------------------------|
E|----------2----0------------------------------|


Verse 2
E|----------------------------------------------|
B|----------------------------------------------|
G|---4------------------------------------------|
D|---4------2----4------------------------------|
A|---2------2----4------------------------------|
E|----------0----2------------------------------|
    pm..............



Pre-chorus
E|------------------------------------------------------|
B|------------------------------------------------------|
G|------------------------------------------------------|
D|---4------2-----4-----6-----4-------------------------|
A|---4------2-----4-----6-----4-------------------------|
E|---2------0-----2-----4-----2-------------------------|
     pm.........................
     .................. 2nd time open from here


Chorus
E|-----------------------------------------------------|
B|-----------------------------------------------------|
G|---4-------------------------------------------------|
D|---4------4----2-------------------------------------|
A|---2------4----2-------------------------------------|
E|----------2----0-------------------------------------|


Nana nanana nanana nanana part:
E|----------------------------------------------|
B|----------------------------------------------|
G|---4------------------------------------------|
D|---4------2----4------------------------------|
A|---2------2----4------------------------------|
E|----------0----2------------------------------|


 - This middlepart I haven’t figured out yet...-


Chorus
E|-----------------------------------------------------|
B|-----------------------------------------------------|
G|---4-------------------------------------------------|
D|---4------4----2-------------------------------------|
A|---2------4----2-------------------------------------|
E|----------2----0-------------------------------------|
  play this till end...



Listen to the song and repeat each chord as often as necessary!!! 

Hope you’ll have fun, enjoy it =) !!!!    

Added On December 16th, 2013

SHARE

Comments

blog comments powered by Disqus

ADVERTISEMENT