Jamestown Story Tabs

Head Spin

1 versions

TAB

            Head Spin - Acoustic Guitar Version
Tabbed by Mitch

Dsus2
e|------0---------------|
B|------3---------------|
G|------2---------------|
D|------0---------------|
A|------x---------------|
E|------x---------------|

Bmadd11
e|------0---------------|
B|------3---------------|
G|------4---------------|
D|------4---------------|
A|------2---------------|
E|------x---------------|

Gmaj
e|------3---------------|
B|------0---------------|
G|------0---------------|
D|------0---------------|
A|------x---------------|
E|------3---------------|

Asus4
e|------0---------------|
B|------3---------------|
G|------2---------------|
D|------2---------------|
A|------0---------------|
E|------x---------------|

Extra tuning may be required to play along with the song, 
otherwise if you know the song well the chords are in the correct order for the intro and verse. 
The Chorus can be played by omitting the first chord and just playing the last three. Good luck!    

Added On December 16th, 2013

SHARE

Comments

blog comments powered by Disqus

ADVERTISEMENT