Jay Z Tabs

Bonnie And Clyde

3 versions

TAB

            Bonnie And Clyde Tab by Jay-z


Riffman*Steimer here with a new tab for all you metal heads!

This is most of the hot new track from Jay-Z and Beyonce!
Jay-Z plays it in normal tuning on an acoustic guitar.

 
 This part is played in the intro and repeated in all the verses..
 
e----------------------------------------------------| \
b----------6-6-5-------------------------------------|  \
g----7p5---------------------------------------------|   \ 
d--------7-----------7p6---9-8p7-9/12-10----9-10-----|   /
a------------------------7---------------12----------|  /    
E----------------------------------------------------| /


 This part is played with lightning speed.....

e-----------------------------------------------------------------
b---17|17|17|15|15|15|13|13|13|12|12|12|15|15|15|13|13|13|12|12|12
g-----------------------------------------------------------------
d-----------------------------------------------------------------
a-----------------------------------------------------------------
E-----------------------------------------------------------------
    

----------------------------|
10|10|10-9-----9/(12)\10----|
----------------------------|
----------------------------|
----------------------------|
----------------------------|

Thats most of the song!  Keep on rockin!    

Added On December 5th, 2013

SHARE

Comments

blog comments powered by Disqus

VERSIONS

ADVERTISEMENT