Jennifer Lopez Tabs

Get Right

1 versions

TAB

            Song is comprised of 2 riffs

Riff 1:

e|-----------------------------------------------------------14--------------|
B|---15-17-15---12-15-17-15---12-15-17-15---12-15-17-15--12------------------|
G|---------------------------------------------------------------------------|
D|---------------------------------------------------------------------------|
A|---------------------------------------------------------------------------|
E|---------------------------------------------------------------------------|


Riff 2:

e|-----------------------14b--------|
B|---15-12-10-12-12--12-------------|
G|----------------------------------|
D|----------------------------------|
A|----------------------------------|
E|----------------------------------|    

Added On December 16th, 2013

SHARE

Comments

blog comments powered by Disqus

ADVERTISEMENT