TAB

            Election Song Tab by Johnny Hobo And The Freight Trains


Johnny Hobo And The Freight Trains
Election Song
Love Songs for the Apocalypse

Standard tuning

Intro (Rhythm is really easy to figure out)
e-------------------------------------------|
b-------------------------------------------|
g-9-9-9-------------------------------------|
d-9-9-9-9-9-9-101010-7-7-7-7-7--------------|
a-7-7-7-9-9-9-101010-7-7-7-7-7--------------|
e-------7-7-7--8-8-8-5-5-5-5-5--------------|

Verse (play as needed)
e-------------------------------------------|
b-------------------------------------------|
g--9---------9-9-9--------------------------|
d--9--9------9-9-9-9-9-9-101010-7-7-7-7-7---|
a--7--9------7-7-7-9-9-9-101010-7-7-7-7-7---|
e-----7------------7-7-7--8-8-8-5-5-5-5-5---|

Chorus

e--------------------------------------------|
b--------------------------------------------|
g-----------------------9-9-9-9-9-9-9-9-9-9--|
d--7-7-7-7-7-9-9-9-9-9--9-9-9-9-9-9-9-9-9-9--|
a--7-7-7-7-7-9-9-9-9-9--7-7-7-7-7-7-7-7-7-7--|
e--5-5-5-5-5-7-7-7-7-7-----------------------|

Song Order
Intro
verse
chorus
intro
verse
chorus
intro
verse
chorus
chorus

Any questions or comments? Email Jerry at jesusthebrokebaccowboy@yahoo.com    

Added On December 5th, 2013

SHARE

Comments

blog comments powered by Disqus

ADVERTISEMENT