TAB

            -------------------------------------------------------------------------------
			     S.O.S. - JONAS BROTHERS
-------------------------------------------------------------------------------
Tabbed by: GuitarHead27
Email:powerunner1ac@yahoo.com

Tuning: standard

•This is what it should sound like when you get it:
                            http://youtube.com/watch?v=tbiW9p2htbI
•There are some missing notes cause i think
   Kevin plays those...i only have what Nick plays.
•Listen to the song for strumming patterns.

      INTRO
e|------------------------------------------|
B|------------------------------------------|
G|---------------5--5--3--------------------|
D|-----5----5-------------------------------|
A|-------------3----------------------------|
E|---3----3---------------------------------|
                   (Told you I made dinner plans....)
e|------------------------------------------|
B|------------------------------------------|
G|---------------5--5--3--------------------|
D|-----5----5-------------------------------|
A|-------------3----------------------------|
E|---3----3---------------------------------|
          (with awkward situations...)
e|------------------------------------------------|
B|------------------------------------------------|
G|------------------------------------------------|
D|-----9----9----7----7----7----7----7----7-------|
A|------------------------------------------------|
E|---7----7----5----5----5----5----5----5---------|

 ~CHORUS~
       (Ooo This is an SOS don't wanna second guess)
e|------------------------------------------------------|
B|------------------------------------------------------|
G|--9------------5--------------------------------------|
D|--9------------5--------------5-----------------------|
A|--7------------3--------------5-----------------------|
E|------------------------------3-----------------------|

       (This is the bottom line it's true I gave my all for you)
e|------------------------------------------------------|
B|------------------------------------------------------|
G|------------7------------9-----------5----------------|
D|------------7------------9-----------5----------------|
A|------------5------------7-----------3----------------|
E|------------------------------------------------------|

       (Now my hearts in two and i can't find the other half)
e|-------------------------------------------------------|
B|-------------------------------------------------------|
G|--------------------------7----------------------------|
D|----------5---------------7----------------7-----------|
A|----------5---------------5----------------7-----------|
E|----------3--------------------------------5-----------|

       (It's like i'm walking on broken glass better believe i bled)
e|------------------------------------------------------|
B|------------------------------------------------------|
G|------------5--------------------7--------------------|
D|------------5---------5----------7------------7-------|
A|------------3---------5----------5------------7-------|
E|----------------------3-----------------------5-------|

       (It's the call i'll never get)
e|------------------------------------------------------|
B|------------------------------------------------------|
G|---------5~-------------------------------------------|
D|---------5~-------------------------------------------|
A|---------3~-------------------------------------------|
E|------------------------------------------------------|

e|------------------------------------------|
B|------------------------------------------|
G|---------------5--5--3--------------------|
D|-----5----5-------------------------------|
A|-------------3----------------------------|
E|---3----3---------------------------------|

                   (This is where the story ends....)
e|------------------------------------------|
B|------------------------------------------|
G|---------------5--5--3--------------------|
D|-----5----5-------------------------------|
A|-------------3----------------------------|
E|---3----3---------------------------------|

          (That's it, sorry for the miscommunication...)
e|------------------------------------------------|
B|------------------------------------------------|
G|------------------------------------------------|
D|-----9----9----7----7----7----7----7----7-------|
A|------------------------------------------------|
E|---7----7----5----5----5----5----5----5---------|


CHORUS
                                             (BRIDGE starts here)
       (It's the call i'll never get Next time i see you)
e|-----------------------------------------------------|
B|-----------------------------------------------------|
G|---------5-------------9--------7--------------------|
D|---------5-------------9--------7--------------------|
A|---------3-------------7--------5--------------------|
E|-----------------------------------------------------|

       (I'm giving you a high five It's not to overrated just an FYI )
e|----------------------------------------------------|
B|----------------------------------------------------|
G|---------------------------5-------------------7~---|
D|----------------7----------5-------------------7~---|
A|----------------7----------3-------------------5~---|
E|----------------5-----------------------------------|

       (Ooo This is an SOS don't wanna second guess)
e|------------------------------------------------------|
B|------------------------------------------------------|
G|--9------------5--------------------------------------|
D|--9------------5--------------5-----------------------|
A|--7------------3--------------5-----------------------|
E|------------------------------3-----------------------|
      PM - - - - - - - - - - - - - - - - - - - - -- - - - -
       (This is the bottom line it's true I gave my all for you)
e|------------------------------------------------------|
B|------------------------------------------------------|
G|------------7------------9-----------5----------------|
D|------------7------------9-----------5----------------|
A|------------5------------7-----------3----------------|
E|------------------------------------------------------|
      PM - - - - - - - - - - - -|

       (Now my hearts in two   YEAH!)
e|------------------------------------------------|
B|------------------------------------------------|
G|-----------------------7------------------------|
D|----------5------------7------------------------|
A|----------5------------5------------------------|
E|----------3-------------------------------------|


       (Ooo This is an SOS don't wanna second guess)
e|------------------------------------------------------|
B|------------------------------------------------------|
G|--9------------5--------------------------------------|
D|--9------------5--------------5-----------------------|
A|--7------------3--------------5-----------------------|
E|------------------------------3-----------------------|

      (This is the bottom line it's true I gave my all for you)
e|------------------------------------------------------|
B|------------------------------------------------------|
G|------------7------------9-----------5----------------|
D|------------7------------9-----------5----------------|
A|------------5------------7-----------3----------------|
E|------------------------------------------------------|

       (Now my hearts in two and i can't find the other half)
e|-------------------------------------------------------|
B|-------------------------------------------------------|
G|--------------------------7----------------------------|
D|----------5---------------7----------------7-----------|
A|----------5---------------5----------------7-----------|
E|----------3--------------------------------5-----------|

       (It's like i'm walking on broken glass better believe i bled)
e|------------------------------------------------------|
B|------------------------------------------------------|
G|------------5--------------------7--------------------|
D|------------5---------5----------7------------7-------|
A|------------3---------5----------5------------7-------|
E|----------------------3-----------------------5-------|

       (It's the call i'll never get, call i'll never get)
e|------------------------------------------------------|
B|------------------------------------------------------|
G|---------5~-------------------------------------------|
D|---------5~-------------------------------------------|
A|---------3~-------------------------------------------|
E|------------------------------------------------------|

Sorry if that was confusing and a little messy. I hope it helped anyway.
Make suggestions and comments, thanks!    

Added On December 16th, 2013

SHARE

Comments

blog comments powered by Disqus

VERSIONS

ADVERTISEMENT