Jonas Brothers Tabs

Year 3000

7 versions

TAB

            Year 3000 Tab by Jonas Brothers


Intro
       * *        * *       * * 
e|----------------------------------------------------------------------|
B|----------2-4---------------------------------------------------------|
G|---------------------1-3----------------------------------------------| x2
D|----------------------------------4-6---------------------------------|
A|-----2-2----------------------------------2-2-4-4---------------------|
E|----------------2-2--------0-0------------0-0-2-2---------------------|


                          v ^   v ^   v
e|----------------------------------------------------------------------|
B|----------------------------------------------------------------------|
G|-----4-4----------------8-8-/-9-9-/-8---------------------------------| x2
D|-----4-4---4-4---2-2----x-x-/-x-x-/-x---------------------------------|
A|-----2-2---4-4---2-2----6-6-/-7-7-/-6---------------------------------|
E|-----------2-2---0-0--------------------------------------------------|


Verse

     "One day..."
e|----------------------------------------------------------------------|
B|----------------------------------------------------------------------|
G|-----4-4--------------------------------------------------------------| x3
D|-----4-4---4-4---2-2---2-4--------------------------------------------|
A|-----2-2---4-4---2-2---2-4--------------------------------------------|
E|-----------2-2---0-0---0-2--------------------------------------------|


PreChorus
     "He told me he..."
e|----------------------------------------------------------------------|
B|----------------------------------------------------------------------|
G|----------------------------------------------------------------------| x1
D|---6---------------4----------------2---------------------------------|
A|---6---------------4----------------2---------------------------------|
E|---4---------------2----------------0---------------------------------|


Chorus
                          v ^   v ^   v
e|----------------------------------------------------------------------|
B|----------------------------------------------------------------------|
G|-----4-4----------------8-8-/-9-9-/-8---------------------------------| x4
D|-----4-4---4-4---2-2----x-x-/-x-x-/-x---------------------------------|
A|-----2-2---4-4---2-2----6-6-/-7-7-/-6---------------------------------|
E|-----------2-2---0-0--------------------------------------------------|



Verse

     "He took me to..."
e|----------------------------------------------------------------------|
B|----------------------------------------------------------------------|
G|-----4-4--------------------------------------------------------------| x3
D|-----4-4---4-4---2-2---2-4--------------------------------------------|
A|-----2-2---4-4---2-2---2-4--------------------------------------------|
E|-----------2-2---0-0---0-2--------------------------------------------|


PreChorus
     "He told me he..."
e|----------------------------------------------------------------------|
B|----------------------------------------------------------------------|
G|----------------------------------------------------------------------| x1
D|---6---------------4----------------2---------------------------------|
A|---6---------------4----------------2---------------------------------|
E|---4---------------2----------------0---------------------------------|


Chorus
                          v ^   v ^   v
e|----------------------------------------------------------------------|
B|----------------------------------------------------------------------|
G|-----4-4----------------8-8-/-9-9-/-8---------------------------------| x4
D|-----4-4---4-4---2-2----x-x-/-x-x-/-x---------------------------------|
A|-----2-2---4-4---2-2----6-6-/-7-7-/-6---------------------------------|
E|-----------2-2---0-0--------------------------------------------------|


Bridge
     "I took a trip..."
e|----------------------------------------------------------------------|
B|----------------------------------------------------------------------|
G|-----4-4--------------------------------------------------------------| x4
D|-----4-4---4-4---2-2---2-4--------------------------------------------|
A|-----2-2---4-4---2-2---2-4--------------------------------------------|
E|-----------2-2---0-0---0-2--------------------------------------------|


PreChorus
     "He told me he..."
e|----------------------------------------------------------------------|
B|----------------------------------------------------------------------|
G|----------------------------------------------------------------------| x1
D|---6---------------4----------------2---------------------------------|
A|---6---------------4----------------2---------------------------------|
E|---4---------------2----------------0---------------------------------|

Chorus
                          v ^   v ^   v
e|----------------------------------------------------------------------|
B|----------------------------------------------------------------------|
G|-----4-4----------------8-8-/-9-9-/-8---------------------------------| x4
D|-----4-4---4-4---2-2----x-x-/-x-x-/-x---------------------------------|
A|-----2-2---4-4---2-2----6-6-/-7-7-/-6---------------------------------|
E|-----------2-2---0-0--------------------------------------------------|    

Added On December 5th, 2013

SHARE

Comments

blog comments powered by Disqus

VERSIONS

ADVERTISEMENT