Keane Tabs

Sunshine

3 versions

TAB

            Sunshine Chords by Keane

Artist: Keane
Song: Sunshine
Tabbed by: Carlos ramirez
Tuning: standard with CAPO on 2nd fret

INTRO:
2nd fret
e|-||--1---1--1--1------|
B|-||--3---2--1--2------|
G|-||--2---2--2--2------| (2)
D|-||--0---0--0--0------|
A|-||-------------------|
E|-||-------------------|


VERSO:

2nd fret
e|-||----1-------------1----------------1---------1---------------------|
B|-||----3-------------2----------------1---------2---------------------|
G|-||----2-------------2----------------2---------2---------------------|
D|-||----0-------------0----------------0---------0---------------------|
A|-||-------------------------------------------------------------------|
E|-||-------------------------------------------------------------------|
      I hold you in my arms    a little animal


2nd fret
e|-||------1---------------1-----------------1-------3------------------|
B|-||------3---------------2-----------------1-------3------------------|
G|-||------2---------------2-----------------2-------4------------------|
D|-||------0---------------0-----------------0-------5------------------|
A|-||------------------------------------------------5------------------|
E|-||------------------------------------------------3------------------|
      and only some dumb idiot would let you go

2nd fret
e|-||-----3----------------0--------3--------------------3--------------|
B|-||-----3----------------1--------3--------------------4--------------|
G|-||-----3----------------0--------3--------------------5--------------|
D|-||-----5----------------2--------5--------------------6--------------|
A|-||-----5----------------3--------5-----------------------------------|
E|-||-----3-------------------------3-----------------------------------|
      but if I'm one thing    then that's the one thing


CORO:
2nd fret
e|-||------------0--------0------------------0---------------0----------|
B|-||------------1--------0------------------1---------------3----------|
G|-||------------0--------0------------------2---------------5----------|
D|-||------------2--------2------------------2---------------6----------|
A|-||------------3--------3------------------0--------------------------|
E|-||-------------------------------------------------------------------|
       I should know            can anybody find their home
                out of everyone can anybody find their home


   verse, chorus(2) , solo( Gm C Gm G#maj7) chorus......    

Added On December 5th, 2013

SHARE

Comments

blog comments powered by Disqus

VERSIONS

ADVERTISEMENT