Keith Urban Tabs

Wont Let You Down

1 versions

TAB

            Wont Let You Down Tab by Keith Urban


-----------------------------------------------------|
Artist: Keith Urban                                  |
Title: Won't Let You Down                            |
Album: Love, Pain & The Whole Crazy Thing            |
Transcribed by: Joel Hickey (quake_masta@hotmail.com)|
-----------------------------------------------------|

Hey there.. i seen there was no tabs of this song,
its one of my faves on the album so i decided to try
and figure it out in bar chords. any corrections,
please post them! and if anyone can convert the bar
chords to the actual chords keith uses that'd be
great!! enjoy!

Tuning:Standard

Legend
======
\ = slide
x = muted string hit
~ = let ring out
d = strum down
u = strum up

Intro + Verse
=============

e|-----------------------------------------------------------------------|
B|-----------------------------------------------------------------------|
G|--7\9-9-x9~~~xx7\9-9-x9~~~xx7\9-9-x9~~~--------------------------------|
D|--7\9-9-x9~~~xx7\9-9-x9~~~xx7\9-9-x9~~~-xx5~~~xx7~~~xx-----------------|
A|--5\7-7-x7~~~xx5\7-7-x7~~~xx5\7-7-x7~~~-xx5~~~xx7~~~xx-----------------|
E|----------------------------------------xx3~~~xx5~~~xx-----------------|
    d   d du   dud                        dud   dud   du

Chorus
======

e|-----------------------------------------------------------------------|
B|-----------------------------------------------------------------------|
G|-5-5-5----------7-7-7-7-7-7--5-5-5-------------------------------------|
D|-5-5-5-5-5-5-xx-7-7-7-7-7-7--5-5-5-5-5-5-7-7-7-7-7-7-------------------|
A|-3-3-3-5-5-5-xx-5-5-5-5-5-5--3-3-3-5-5-5-7-7-7-7-7-7-------------------|
E|-------3-3-3-xx--------------------3-3-3-5-5-5-5-5-5-------------------|
   d d u u d d du d d u u d d

e|-----------------------------------------------------------------------|
B|-----------------------------------------------------------------------|
G|-5-5-5----------7-7-7\9-9x7- 5-5-5-------------------------------------|
D|-5-5-5-5-5-5-xx-7-7-7\9-9x7--5-5-5-5-5-5-7~~~~~~~~~--------------------|
A|-3-3-3-5-5-5-xx-5-5-5\7-7x5--3-3-3-5-5-5-7~~~~~~~~~--------------------|
E|-------3-3-3-xx--------------------3-3-3-5~~~~~~~~~--------------------|
   d d u u d d du d d u   uud 

Bridge
======

e|-----------------------------------------------------------------------|
B|-----------------------------------------------------------------------|
G|---------------------5-x------------5-5-5----------5-x-----------------|
D|3-3-3-3-3-3-xx-5-5-5-5-x-5-xx-3-3-3-5-5-5-xx-5-5-5-5-x-5---------------|
A|3-3-3-3-3-3-xx-5-5-5-3-x-5-xx-3-3-3-3-3-3-xx-5-5-5-3-x-5---------------|
E|1-1-1-1-1-1-xx-3-3-3-----3-xx-1-1-1-------xx-3-3-3-----3---------------|
  d d u u d d du  

e|-----------------------------------------------------------------------|
B|-----------------------------------------------------------------------|
G|------5-5-5------------------------------------------------------------|
D|3-3-3-5-5-5-xx-5-5-5-5-5-5-xx-7-7-7-7-7-7-77777777---------------------|
A|3-3-3-3-3-3-xx-5-5-5-5-5-5-xx-7-7-7-7-7-7-77777777---------------------|
E|1-1-1-------xx-3-3-3-3-3-3-xx-5-5-5-5-5-5-55555555---------------------|
  d d u u d d du    

Added On December 5th, 2013

SHARE

Comments

blog comments powered by Disqus

ADVERTISEMENT