Kellie Pickler Tabs

Stop Cheatin On Me

1 versions

TAB

            -------------------------------------------------------------------------------
                             STOP CHEATIN ON ME - Kellie Pickler
-------------------------------------------------------------------------------
Intro:
  G
e|------------------------3------3--3-----3--------------------|
B|------------------------3------3--3-----3--------------------|
G|------------------------0------0--0-----0--------------------|
D|--0h2p0-----------------0------0--0-----0-0h2-0--------------|
A|--------2h5p2-0h2p0-----2------2--2-----2--------------------|
E|---------------------3--3---3--3--3--3--3--------------------|

For the rest of the song, just pick the lowest string in that chord and then strum up 
once then down once, and repeat if necessary.

Where there’s a star (*), play this:
e|------------------------3------3--3-----3---------------|
B|------------------------3------3--3-----3---------------|
G|------------------------0------0--0-----0---------------|
D|------------------------0------0--0-----0-0h2-0---------|
A|------------------------2------2--2-----2---------------|
E|---------------------3--3---3--3--3--3--3---------------|

G               C
Baby we used to have
           G
Something special
    G
But lately you've been
                 D
Ignoring all the rules
     G
Well you think that
  C
I don't know what
       G*
You’re doing
            G
You've been running around
    D           G   G
And making me a fool


Chorus
                 C D
Stop cheating on me
                      G G7
It ain't that hard to do
                 C
Stop cheating on me or
D                      G
I'll start cheating on you

(Key change)
A

    A
Now don't think I won't
D                 A
Sink down to your level
    A
I'm sure somewhere
                      E
There’s someone I can hold
A             D
I can make my own deal
         A
With the devil
         A
And then you'll find out
     E                A
That hell can sure be cold


Chorus 2:
                 D E
Stop cheating on me
E                     A A7
It ain't that hard to do
A7                D
Stop cheating on me or
E                      A
I'll start cheating on you


Guitar solo: A-A7-D-A/C#-A-E-A-D-A


Chorus 3:
                 D E
Stop cheating on me
                      A A7
It ain't that hard to do
                 D
Stop cheating on me or
E                      A D A D A (strum once)
I'll start cheating on you    

Added On December 16th, 2013

SHARE

Comments

blog comments powered by Disqus

ADVERTISEMENT