TAB

            Artist: Kids In Glass Houses
Rhythm Guitarist: Joel Fisher
Song: Raise Hell
Album: E-Pocalypse!
Tabbed By: Lewis [lewis_mason21@hotmail.com]

This was done on request, though I'm not terribly good at guitar, the basics are here!  
anyone can tab lead from these basics, or even polish this tab up, then all the better!

Key:
~: Let Note Ring
/: Slide Up
\: Slide Down

[Tuning: Standard - E,A,D,G,B,e]


Intro:
("Well don't worry" ... "And I'm...")
e|-------------------------------------------------------------------------------------|
B|-------------------------------------------------------------------------------------|
G|-/5-5-5-5-5-5-5\4-5---------------------10-10-10-10-10-10-10\9-10--7-7-7-7-7-7-7\6-7-|
D|-/5-5-5-5-5-5-5\4-5--7-7-7-7-7-7-7\6-7--10-10-10-10-10-10-10\9-10--7-7-7-7-7-7-7\6-7-|
A|-/3-3-3-3-3-3-3\2-3--7-7-7-7-7-7-7\6-7--8--8--8--8--8--8--8-\7-8---5-5-5-5-5-5-5\4-5-|
E|---------------------5-5-5-5-5-5-5\4-5-----------------------------------------------| [x2]


Verse One:
("...Dying gradually" ... "How normal you are")
e|----------------------------------------------------------------------------|
B|----------------------------------------------------------------------------|
G|-5-5-5-5-5-5-5\4-5--5-5-5-5-5-5-5\4-5---------------------------------------|
D|-5-5-5-5-5-5-5\4-5--5-5-5-5-5-5-5\4-5--7-7-7-7-7-7-7\6-5--7-7-7-7-7-7-7\6-7-|
A|-3-3-3-3-3-3-3\2-3--3-3-3-3-3-3-3\2-3--7-7-7-7-7-7-7\6-5--7-7-7-7-7-7-7\6-7-|
E|---------------------------------------5-5-5-5-5-5-5\4-5--5-5-5-5-5-5-5\4-5-|

e|-----------------------------------------------------------------------------------------|
e|-----------------------------------------------------------------------------------------|
G|-10-10-10-10-10-10-10\9-10--7-7-7-7-7-7-7\6-7--10-10-10-10-10-10-10\9-10--7-7-7-7-7-7-77-|
D|-10-10-10-10-10-10-10\9-10--7-7-7-7-7-7-7\6-7--10-10-10-10-10-10-10\9-10--7-7-7-7-7-7-77-|
A|-8--8--8--8--8--8--8-\7-8---5-5-5-5-5-5-5\4-5--8--8--8--8--8--8--8-\7-8---5-5-5-5-5-5-55-|
E|-----------------------------------------------------------------------------------------|

Chorus:
("Perfect examples of" ... "People should be")
e|--------------------------------------------|
B|--------------------------------------------|
G|-10~---7~---5-5-5-5-5-5-5-5-----------------|
D|-10~---7~---5-5-5-5-5-5-5-5-7-7-7-7-7-7-7-7-|
A|-8~----5~---3-3-3-3-3-3-3-3-7-7-7-7-7-7-7-7-|
E|----------------------------5-5-5-5-5-5-5-5-|

e|-------------|
B|-------------|
G|-10~---7~----|
D|-10~---7~----|
A|-8~----5~----|
E|-------------|

e|----------------------------------------------------------------------------|
B|----------------------------------------------------------------------------|
G|-5-5-5-5-5-5-5\4-5--5-5-5-5-5-5-5\4-5---------------------------------------|
D|-5-5-5-5-5-5-5\4-5--5-5-5-5-5-5-5\4-5--7-7-7-7-7-7-7\6-5--7-7-7-7-7-7-7\6-7-|
A|-3-3-3-3-3-3-3\2-3--3-3-3-3-3-3-3\2-3--7-7-7-7-7-7-7\6-5--7-7-7-7-7-7-7\6-7-|
E|---------------------------------------5-5-5-5-5-5-5\4-5--5-5-5-5-5-5-5\4-5-|


Verse Two:
("Well I see the way" ... "How normal you are")
e|----------------------------------------------------------------------------|
B|----------------------------------------------------------------------------|
G|-5-5-5-5-5-5-5\4-5--5-5-5-5-5-5-5\4-5---------------------------------------|
D|-5-5-5-5-5-5-5\4-5--5-5-5-5-5-5-5\4-5--7-7-7-7-7-7-7\6-5--7-7-7-7-7-7-7\6-7-|
A|-3-3-3-3-3-3-3\2-3--3-3-3-3-3-3-3\2-3--7-7-7-7-7-7-7\6-5--7-7-7-7-7-7-7\6-7-|
E|---------------------------------------5-5-5-5-5-5-5\4-5--5-5-5-5-5-5-5\4-5-|

e|-----------------------------------------------------------------------------------------|
e|-----------------------------------------------------------------------------------------|
G|-10-10-10-10-10-10-10\9-10--7-7-7-7-7-7-7\6-7--10-10-10-10-10-10-10\9-10--7-7-7-7-7-7-77-|
D|-10-10-10-10-10-10-10\9-10--7-7-7-7-7-7-7\6-7--10-10-10-10-10-10-10\9-10--7-7-7-7-7-7-77-|
A|-8--8--8--8--8--8--8-\7-8---5-5-5-5-5-5-5\4-5--8--8--8--8--8--8--8-\7-8---5-5-5-5-5-5-55-|
E|-----------------------------------------------------------------------------------------|


Chorus: [Note: Play the bracketed chord softly before the bridge]
("Perfect examples of" ... "People should be")
e|--------------------------------------------|
B|--------------------------------------------|
G|-10~---7~---5-5-5-5-5-5-5-5-----------------|
D|-10~---7~---5-5-5-5-5-5-5-5-7-7-7-7-7-7-7-7-|
A|-8~----5~---3-3-3-3-3-3-3-3-7-7-7-7-7-7-7-7-|
E|----------------------------5-5-5-5-5-5-5-5-|

e|--------------------------------------------|
B|--------------------------------------------|
G|-10~---7~---5-5-5-5-5-5-5-5-----------------|
D|-10~---7~---5-5-5-5-5-5-5-5-7-7-7-7-7-7-7-7-|
A|-8~----5~---3-3-3-3-3-3-3-3-7-7-7-7-7-7-7-7-|
E|----------------------------5-5-5-5-5-5-5-5-|

e|---------------|
B|---------------|
G|-10~---(7~)----|
D|-10~---(7~)----|
A|-8~----(5~)----|
E|---------------|


Bridge: [Note: Only lead and bass play here I think, last chord is just as Aled sings]
e|--------REST--------|
B|--------REST--------|
G|--------REST--------|
D|--------REST--------|
A|--------REST--------|
E|--------REST--------|

e|----|
B|-5~-|
G|-5~-|
D|-5~-|
A|-3~-|
E|----|


Chorus: [Note: Play the bracketed chord softly before the bridge]
("Perfect examples of" ... "People should be")
e|--------------------------------------------|
B|--------------------------------------------|
G|-10~---7~---5-5-5-5-5-5-5-5-----------------|
D|-10~---7~---5-5-5-5-5-5-5-5-7-7-7-7-7-7-7-7-|
A|-8~----5~---3-3-3-3-3-3-3-3-7-7-7-7-7-7-7-7-|
E|----------------------------5-5-5-5-5-5-5-5-|

e|--------------------------------------------|
B|--------------------------------------------|
G|-10~---7~---5-5-5-5-5-5-5-5-----------------|
D|-10~---7~---5-5-5-5-5-5-5-5-7-7-7-7-7-7-7-7-|
A|-8~----5~---3-3-3-3-3-3-3-3-7-7-7-7-7-7-7-7-|
E|----------------------------5-5-5-5-5-5-5-5-|

e|-------------|
B|-------------|
G|-10~---7~----|
D|-10~---7~----|
A|-8~----5~----|
E|-------------|

Outro:
e|------------------------------------------------------------------------------|
B|------------------------------------------------------------------------------|
G|-5-5-5-5-5-5-5\4-5--5-5-5-5-5-5-5\4-5-----------------------------------------|
D|-5-5-5-5-5-5-5\4-5--5-5-5-5-5-5-5\4-5--7-7-7-7-7-7-7\6-5--7-7-7-7-7-7-7\6-7-7-|
A|-3-3-3-3-3-3-3\2-3--3-3-3-3-3-3-3\2-3--7-7-7-7-7-7-7\6-5--7-7-7-7-7-7-7\6-7-7-|
E|---------------------------------------5-5-5-5-5-5-5\4-5--5-5-5-5-5-5-5\4-5-5-|    

Added On December 16th, 2013

SHARE

Comments

blog comments powered by Disqus

ADVERTISEMENT