Kiko Machine Tabs

Mcgyver

2 versions

TAB

            Mcgyver Tab by Kiko Machine


Song:McGyver
Artist:Kiko Machine
Album:Kiko Machine
Date Tabbed:May,2006
Guitar Tabber:Ryan Manongdo,16,m,Montalban Rizal
              forget_013@yahoo.com.ph(Friendster&YM)
              09229015724(Sun Cell)
 
Gtr.Legends:
x - DEAD STRING
~ - LET IT RING
. - PALM MUTING
\ - SLIDE
    
Intro prt 1:
e|---------------------|
B|---------------------|
G|--7777777777777777---|
D|--xxxxxxxxxxxxxxxx---|
A|--7777777777777777---|
E|---------------------|

Intro prt 2 and Verse 1&2:
e|-------------------------| Notes:May strumming pattern ito..may
B|-------------------------|      mga dead strings..
G|--999999---777-666-7-6---|
D|--xxxxxx---xxx-xxx-x-x---|
A|--777777---555-444-5-4---|
E|-------------------------|


e|-----------------------    -------------------------|
B|-----------------------    -------------------------|
G|----------------------- 3x -------------------------| Then
D|--99999---7777--xxxx---    -9999---99999--9-9-9-9---|
A|--77777---5555--xxxx---    -7777---77777--7-7-7-7---|
E|----------------xxxx---    -------------------------|
                                            . . . .

Wala pa ring tatalo kay McGyver ultimate...
e|------------------------------------------------|
B|------------------------------------------------|
G|------------------------------------------------|
D|------------------------------------------------|
A|------------------------------------------------|
E|-33-5-5--7-7--9-9--11-11--12-12--13-13--14-14\2-|

Verse 3:
e|--------------------|
B|--------------------|
G|--9~--7-7-7-7--9~---| Repeat many times
D|--9~--7-7-7-7--9~---|
A|--7~--5-5-5-5--7~---|
E|--------------------|

Last Chord:
e|-------|
B|-------|
G|--9~---|
D|--9~---|
A|--7~---|
E|-------|

End..
 
  I would like to greet first offcourse my ONLY ONLY ONE,then;my relatives,my
friends on Montalban(Brgy.Balite Espiritu Subd.),My traitor friends in our school
NSDAPS San Mateo Rizal,Cocklosas,Cocklisay.Cocktabijan,Cockpistrano,Cockyatano,Cockruz,
Franciscock,Picock,Fuckmittan,Redick,Simbulbulan,Frondosuso,Bayagin,Titesta,Aldick,and many
moore,our band club(COMBO-RATS),Project X,To all my txt mates and other companie,Red Porn Records,
My friends in YM and Friendster,and most of all,hi to God..

Padre Garrote:          Extra:

Dino Testa:Vocals       Andrei Frondoso:Xylophone,Triangles,Flute and Tamborine           
Edy Capistrano:Gtr.1    Mike Alvez:Sub-Guitar                               
Jiro Uezono:Gtr.2      
Ryan Manongdo:Bass       
Aeroll Cayetano:Drums    

Added On December 5th, 2013

SHARE

Comments

blog comments powered by Disqus

VERSIONS

ADVERTISEMENT