Killers Tabs

My List

5 versions

TAB

            My List Tab by Killers


The Killers - My List (from the Album "Sam's Town", 2007)
Standard tuning (EADGBE)


This is my first attempt at tabbing an entire song. Don't be too harsh in your criticism 
leave constructive comments all the same :) I'll try and complete the end soon, but for 
this is all I have. Although it is most of the song, Thankyou.


[INTRO]


[0:04 - Synth]

e|-------|
B|-------|
G|-------|
D|-------|
A|---3---|  *Fade in and out several times
E|-------|

[0:26 - Whine guitar, All slides]

e|-17-15-13-12----10-12-13-12-10-10-8----12------|
B|-----------------------------------------------|
G|-----------------------------------------------|
D|-----------------------------------------------|
A|-----------------------------------------------|
E|-----------------------------------------------|

e|-17-15-13-12----10-12-13-12-10-10-8----12-10-8-|
B|-----------------------------------------------|
G|-----------------------------------------------|
D|-----------------------------------------------|
A|-----------------------------------------------|
E|-----------------------------------------------|

e|-17-15-13-12----10-12-13-12-10-10-8----12-7----|
B|-----------------------------------------------|
G|-----------------------------------------------|
D|-----------------------------------------------|
A|-----------------------------------------------|
E|-----------------------------------------------|

e|-17-15-13-12----10-12-13-12-10-10-8----(8)-----|
B|-----------------------------------------------|
G|-----------------------------------------------|
D|-----------------------------------------------|
A|-----------------------------------------------|
E|-----------------------------------------------|


[VERSE 1]


[0:57 - No guitar for this, only Piano which is playing notes too low for the guitar to go]

Let me wrap myself around you
Let you show me how I see
And when you come back in from nowhere
Do you ever think of me?
Your heart is not able
Let me show you how much I care


[VERSE 2]


[1:26 - Piano]

e|-----------12-------12------------|
B|--------------13------------------|
G|--------12-------12---------------|
D|----------------------------------|
A|----------------------------------|
E|----------------------------------|
   I need those eyes to tide me over

e|--------8-----8-------------------|
B|----------8-----8-----------------|
G|------9-----9---------------------|
D|----------------------------------|
A|----------------------------------|
E|----------------------------------|
   I’ll take your picture when I go

e|----12-------12-------------------|
B|-------13-------------------------|
G|-12-------12----------------------|
D|----------------------------------|
A|----------------------------------|
E|----------------------------------|
   It gives me strength and gives me patience

e|--------8-----10------------------|
B|----------8-----------------------|
G|------9-----9---------------------|
D|----------------------------------|
A|----------------------------------|
E|----------------------------------|
   But I’ll never let you know

e|-----12------12-------------------|
B|--------10------------------------|
G|---9-------9----------------------|
D|----------------------------------|
A|----------------------------------|
E|----------------------------------|
   I got nothing on you baby

e|------15-12----10-----------------|
B|---12-------12--------------------|
G|----------------------------------|
D|----------------------------------|
A|----------------------------------|
E|----------------------------------|
   But I always said I try

e|------12-------12--------------8-----8-----|
B|---------13----------------------8---------|
G|---12-------12---------------9-----9-------|
D|-------------------------------------------|
A|-------------------------------------------|
E|-------------------------------------------|
              Let me show you how much I care

[CHORUS]

[1:58 - Electric Guitar]


e|----5~----------------------------|
B|----5~----------------------------|
G|----6~----------------------------|
D|----7~----------------------------|
A|----7~----------------------------|
E|----5~----------------------------|
   'Cause sometimes it gets hard
   And don’t she know

[Guitar 1]
e|-------------------------------------------------------|
B|-------------------------------------------------------|
G|-------------------------------------------------------|
D|-------------------------------------------------------|
A|-------------------------------------------------------|
E|-3-x-3-/-10-10-10-10-/-12-12-12-12-/-13-13-13-13-/-15--|

e|-------------------------------------------------------|
B|-------------------------------------------------------|
G|----------9-10-10-10h12p10--9-9-9h10p9-----------------|
D|--/-10-12------------------------------/-7-7-7h9p7-\-5-|
A|-------------------------------------------------------|
E|-------------------------------------------------------|

[Guitar 2]
e|-7--------------------------------|
B|-7--------------------------------| *Plays this chord
G|-7--------------------------------|  all the way through.
D|-9--------------------------------|  Unsure if this is
A|-9--------------------------------|  correct
E|-7--------------------------------|


[Guitar 1]
e|-------------------------------------------------------|
B|-------------------------------------------------------|
G|-------------------------------------------------------|
D|-------------------------------------------------------|
A|-------------------------------------------------------|
E|-3-x-3-/-10-10-10-10-/-12-12-12-12-/-13-13-13-13-/-15--|
   Don’t give the ghost up just clench your fist

e|-------------------------------------------------------|
B|-------------------------------------------------------|
G|----------9-10-10-10h12p10--9-9-9h10p9-----------------|
D|--/-10-12------------------------------/-7-7-7h9p7-\-5-|
A|-------------------------------------------------------|
E|-------------------------------------------------------|
   You should have known by now you were on my list

[Guitar 2]
e|-7--------------------------------|
B|-7--------------------------------| *Plays this chord
G|-7--------------------------------|  all the way through.
D|-9--------------------------------|  Unsure if this is
A|-9--------------------------------|  correct
E|-7--------------------------------|

[SOLO]

I couldn't work this bit out, sorry :( It's played over the chords to the end of the chorus.

[OUTRO]


[3:33 - Whine Guitar, All Slides]

e|-17-15-13-12----10-12-13-12-10-10-8----12-8----|
B|-----------------------------------------------|
G|-----------------------------------------------|
D|-----------------------------------------------|
A|-----------------------------------------------|
E|-----------------------------------------------|

e|-17-15-13-12----10-12-13-12-10-10-8----(8)-----|
B|-----------------------------------------------|
G|-----------------------------------------------|
D|-----------------------------------------------|
A|-----------------------------------------------|
E|-----------------------------------------------|

[Synth]

e|-------|
B|-------|
G|-------|
D|-------|
A|---3---|  *Fade in and out several times
E|-------|

Key***
______


/ = Slide
h = Hammer-on
p = Pull-off
~ = Let ring
x = Muted string    

Added On December 5th, 2013

SHARE

Comments

blog comments powered by Disqus

VERSIONS

ADVERTISEMENT