Killers Tabs

Uncle Johnny

3 versions

TAB

            Uncle Johnny Tab by Killers


Ok this is my first tab, but I think I got it right...Enjoy ;)


Intro/Verse/Bridge

E|-------------------------------------------------------------------------|
B|-------------------------------------------------------------------------|
G|-------------------------------------------------------------------------|
D|----7--7--7--7--7-9-10-12--10-9-10-12--12--12--12--12-10-9-10--9-10-9----|
A|----0--0--0--0--0-0--0--0---0-0--0--0---0---0---0---0--0-0--0--0--0-0----|
E|-------------------------------------------------------------------------|

Chorus

E|-----------------------------------------------------------------------------------------------------|
B|-----------------------------------------------------------------------------------------------------|
G|---5--5--5--5--4--4--4--4--2--2--2--2----------------------------------------------------------------|
D|---5--5--5--5--4--4--4--4--2--2--2--2--5--5--5--5--3--3--3--3--3--3--3--3--5--5--5--5--5--5--5--5----|
A|---3--3--3--3--2--2--2--2--0--0--0--0--5--5--5--5--3--3--3--3--3--3--3--3--5--5--5--5--5--5--5--5----|
E|---------------------------------------3--3--3--3--1--1--1--1--1--1--1--1--3--3--3--3--3--3--3--3----|

Outro

E|--------------------------------|
B|--------------------------------|
G|--------------------------------|
D|------7--7--7----7--7--7--------|
A|----0----0--0--0----0--0--------| x4
E|--------------------------------|

Please leave a comment ;)    

Added On December 5th, 2013

SHARE

Comments

blog comments powered by Disqus

VERSIONS

ADVERTISEMENT