Kingdom Come Tabs

Time Captives

1 versions

TAB

            Time Captives
Kingdom Come
Journey

Written by Arthur Brown
Transcribed by Frosty (thepiemancometh_13@hotmail.com)

Standard Tuning EADGBE


Starts off with bass (arranged for guitar in this case) doing this over and over
e ------------------------------------------------|
B ------------------------------------------------|
G ------------------------------------------------|
D ------------------------------------------------|
A ------------------------------------------------|
E 1-----------1-----------1-----------1-----------|

Then the guitar comes in doing this with wah (listen to recording for wah technique)
e 11111111111111111111111111111111
B --------------------------------|
G --------------------------------|
D --------------------------------|
A --------------------------------|
E --------------------------------|

Which goes into this little run down before the mad part (listen to recording)
e 222000-------------------------------------------------------|
B ------666444555333444222333111222000-------------------------|
G ------------------------------------555333444222333111222000-|
D -------------------------------------------------------------|
A -------------------------------------------------------------|
E -------------------------------------------------------------|

Then repeats this during the main verse (Now time ship, atom centuries etc....I can't 
out the lyrics)
e 11111111111111111111111111111111
B --------------------------------|
G --------------------------------|
D --------------------------------|
A --------------------------------|
E --------------------------------|

Main verse riff (synth arranged for guitar, played during above riff)
e ---------------------------------------------------------|
B ---------------------------------------------------------|
G ---------------------------------------------------------|
D ---------------------------------------------------------|
A ------3--4-----3--1--------------3--4-----3--1-----------|
E 1-----------------------4--1-----------------------4--1--|

Then the guitar slows down to this
e --------------------------------------|
B --------------------------------------|
G --------------------------------------|
D --------6-------8-------8--5----------|
A 3-------4-------6-------6--3--3-------|
E 1-----------------------------1-------|

And plays this after the vocals stop to the end
e --------------------------------|
B --------------------------------|
G --------------------------------|
D --------6-------3---------------|
A 3-------4-------1-------3-------|
E 1-----------------------1-------|

And that's it

Enjoy!    

Added On December 16th, 2013

SHARE

Comments

blog comments powered by Disqus

ADVERTISEMENT