Korn Tabs

Bottled Up Inside

2 versions

TAB

            Bottled Up Inside Tab by Korn


Song: "Bottled Up"
Artist: Korn
Album: Untouchables
Corrections: Redhotchillipeppers_tom@hotmail.com
Tuning: 1 Step Down (A,D,G,C,F,A,D)

VERSE:
|-----------------------|
|-----------------------|
|-----------------------|
|-----------------------|
|-----------------------|
|-4-2-4--4-5-4--4-2-4-4-|
|-2-0-2--2-3-2--2-0-2-2-|

VERSE FILL: (play when he starts singing)
|-------------------|
|-------------------|
|-------------------|
|-------------------|
|-------------------|
|-4--4-5-4--4-2-4-4-|
|-2--2-3-2--2-0-2-2-|

BRIDGE: (guitar 1) (^(n) - bend 1/2 step then release)
|------------------|
|------------------|
|------------------|
|---9^(9)----9^(9)-|
|------------------|
|-7--------7-------|
|------------------|

BRIDGE: (guitar 2)
|------------------------------------------------|
|------------------------------------------------|
|------------------------------------------------|
|------------------------------------------------|
|------------------------------------------------|
|-4-5---4-5---4-5-4-5-44-5-4-5--4-5-4-5-44-5-4-5-|
|-2-3---2-3---2-3-2-3-22-3-2-3--2-3-2-3-22-3-2-3-|

CHORUS:
|----------------------------------|
|----------------------------------|
|----------------------------------|
|----------------------------------|
|-----9^----2p0-2------------------|
|-2-2-7^--2--------2-2-7---5-------|
|-0-0-----0--------0-0---7---5-8-7-|

INTERLUDE:
|------------------|
|------------------|
|------------------|
|------------------|
|------------------|
|-4-5-4-5-44-5-4-5-|
|-2-3-2-3-22-3-2-3-|

INTERLUDE 2:
|------------------|
|------------------|
|------------------|
|------------------|
|------------------|
|-2-2-22-2--2-2-22-|
|-0-0-00-0--0-0-00-|    

Added On December 5th, 2013

SHARE

Comments

blog comments powered by Disqus

VERSIONS

ADVERTISEMENT