L7 Tabs

American Society

1 versions

TAB

            L7 - American Society
Standard Tuning

This is a great one for the beginner, not fast, nice chunky sound and pretty much the 
chords throughout the whole song.
At the start just scrape the pick down the strings (if you really want!).

Intro and pretty much most of the song with slight variations throughout.
e|--------------------------------|
B|--------------------------------|
G|-------------------7-7----------|
D|---2-2-----5-5-----7-7-7-7-7-7--|
A|---2-2-x-x-5-5-x-x-5-5-7-7-7-7--|
E|---0-0-x-x-3-3-x-x-----5-5-5-5--|

Chorus part where she sings 'I don't wanna drown.....'
e|--------------------------------|
B|--------------------------------|
G|--------5-5---------------------|
D|----2-2-5-5-5-5-7-7-7-7---------|
A|----2-2-3-3-5-5-7-7-7-7---------|
E|----0-0-----3-3-5-5-5-5---------|    

Added On December 16th, 2013

SHARE

Comments

blog comments powered by Disqus

ADVERTISEMENT