Lenny Kravitz Tabs

Ill Be Waiting

6 versions

TAB

            Lenny Kravitz
I'll be waiting
Its time for a love revolution

Tabbed by: Kean Oscar Uson Ermitano





 Intro:
 Piano part


 Verse:(optional)

 |---------------------------------------------------|
 |---------------------------------------------------|
 |---------------------------------------------------|
 |--7~---8~---3~-------------------------------------|
 |--5~---6~---1~-------------------------------------|
 |---------------------------------------------------|

 
 Before Chorus:

 |----------------------------------------------------------------|
 |----------------------------------------------------------------|
 |---7---5-7-5-7-------7---5-7-5-7--------------------------------|
 |-------------------------------------10-10-10-10-10-10-10-10-10-| 
 |-------------------------------------8--8--8--8--8--8--8--8--8--|
 |----------------------------------------------------------------|


 Chorus:

 |------------------------------------------------------------------------|
 |------------------------------------------------------------------------|
 |------------------------------------------------------------------------|
 |--7-7-7-7-8-8-8-8-3-3-3-3-3-3-3-3-7-7-7-7-8-8-8-8-3-3-3-3--10-10-10-10--|
 |--5-5-5-5-6-6-6-6-1-1-1-1-1-1-1-1-5-5-5-5-6-6-6-6-1-1-1-1---8--8--8--8--|
 |------------------------------------------------------------------------|


 Before pause to ending the chorus part:

 |------------------------------------------------------------------------|
 |------------------------------------------------------------------------|
 |--------------------------------x---------------------------------------|
 |--8-8-8-8-7-7-7-7-5-5-5-5-5-5-5-x-7----8-8-8-8-7-7-7-7-5-5-5-5-5-5-5----|
 |--6-6-6-6-5-5-5-5-3-3-3-3-3-3-3-x-5----6-6-6-6-5-5-5-5-3-3-3-3-3-3-3----|
 |--------------------------------x---------------------------------------|


 |------------------------------------------------------------------------|
 |-----------------------------------------------------P------------------|
 |-----------------------------------------------------A------------------|
 |-10-10-10-10-10-10-10-10-10-10-10-10-10-10-10-10-10--U------------------|
 |--8--8--8--8--8--8--8--8--8--8--8--8--8--8--8--8--8--S------------------|
 |-----------------------------------------------------E------------------|



 Piano part:



 Chorus:

 |------------------------------------------------------------------------|
 |------------------------------------------------------------------------|
 |------------------------------------------------------------------------|
 |--7-7-7-7-8-8-8-8-3-3-3-3-3-3-3-3-7-7-7-7-8-8-8-8-3-3-3-3--10-10-10-10--|
 |--5-5-5-5-6-6-6-6-1-1-1-1-1-1-1-1-5-5-5-5-6-6-6-6-1-1-1-1---8--8--8--8--|
 |------------------------------------------------------------------------|



Before pause to ending:

 |------------------------------------------------------------------------|
 |------------------------------------------------------------------------|
 |--------------------------------x---------------------------------------|
 |--8-8-8-8-7-7-7-7-5-5-5-5-5-5-5-x-7----8-8-8-8-7-7-7-7-5-5-5-5-5-5-5----|
 |--6-6-6-6-5-5-5-5-3-3-3-3-3-3-3-x-5----6-6-6-6-5-5-5-5-3-3-3-3-3-3-3----|
 |--------------------------------x---------------------------------------|


 |------------------------------------------------------------------------|
 |-----------------------------------------------------P------------------|
 |-----------------------------------------------------A------------------|
 |-10-10-10-10-10-10-10-10-10-10-10-10-10-10-10-10-10--U------------------|
 |--8--8--8--8--8--8--8--8--8--8--8--8--8--8--8--8--8--S------------------|
 |-----------------------------------------------------E------------------|    

Added On December 16th, 2013

SHARE

Comments

blog comments powered by Disqus