Limp Bizkit Tabs

Underneath The Gun

3 versions

TAB

            Unterneath the Gun

Tuning: C#, F#, B#, e, g#, c# 

Intro:
|--3--2--2---------------------------|
|--3--3--3---------------------------|
|--2--2--2---------------------------|
|--------0---------------------------|
|------------------------------------|
|------------------------------------| x4
Verse:
|--3--2--2-------|
|--3--3--3-------|
|--2--2--2-------|
|--------0-------|
|----------------|
|----------------| x10
Pre-Chorus:
|--3-3-3-3-3-3-3-3-3-3-3-3-3/5-5-5-5-5-5-5-5-5-5--3--2--2---|
|--3-3-3-3-3-3-3-3-3-3-3-3-3/5-5-5-5-5-5-5-5-5-5--3--3--3---|
|--0-0-0-0-0-0-0-0-0-0-0-0-0-2-2-2-2-2-2-2-2-2-2--2--2--2---|
|-------------------------------------------------------0---|
|-----------------------------------------------------------|
|-----------------------------------------------------------| x2
Play Verse
Play Pre-Chorus
Chorus:
|-----------------------------------------------------------------------|
|-----------------------------------------------------------------------|
|------7-7\5-----7-7\5-----7-7\5-[5]-[7]-5-5-5-5-5-5-5-5-5-5-5-5--------|
|--7-7-7-7\5-7-7-7-7\5-7-7-7-7\5---[7]---5-5-5-5-5-5-5-5-5-5-5-5--------|
|--5-5-5-5\3-5-5-5-5\3-5-5-5-5\3---------3-3-3-3-3-3-3-3-3-3-3-3--------|
|-----------------------------------------------------------------------| 
   * *       * *       * *    

Added On December 16th, 2013

SHARE

Comments

blog comments powered by Disqus

VERSIONS

ADVERTISEMENT