Lynyrd Skynyrd Tabs

Cry For The Bad Man

2 versions

TAB

            Cry For The Bad Man Tab by Lynyrd Skynyrd


Tabbed by Micah Lauritzen
diablocowboy@hotmail.com

Intro/Verse
E-------------------------------------------------------------------------
B-------------------------------------------------------------------------
G----------------------------------------5-------7------------------------
D----------------5---------------------5---5---7---7---5------------------
A-5---7-7--5--7--3--7-7--5--7------0-3-------5---------3--7-7--5--7-------
E-3---5-5--3--5-----5-5--3--5-----------------------------5-5--3--5-------

Chorus

 OOOoooooohhhhh      Lets cry for the bad man
E---------------------------------------------------------
B---------------------------------------------------------
G--7----------5-------------------------------------------
D--7----------5--------------5----------7-----------------
A--5----------3--------------5----------7-----------------
E----------------------------3----------5-----------------    

Added On December 5th, 2013

SHARE

Comments

blog comments powered by Disqus

VERSIONS

ADVERTISEMENT