M2M Tabs

Jennifer

2 versions

TAB

            Jennifer Tab by M2m


Title: Jennifer
Artist: M2M
Tabs by: E.J. Gemzon====>clapton_riff@yahoo.com

/// =strum the string repeatedly
p   =pull off
h   =hammer on
~   =vibrate 
b   =bend

Intro riff:

e-2-0-----2----2-0-----2----2-0-------|
b-----3------------3------------3-----|
g-------2------------2------------2---|
d-------------------------------------|
a-------------------------------------|
E-------------------------------------|

e-2-0--------2-0------2------------|
b-----3----------3-----------------|
g-------2----------2---------------|
d----------------------------------|
a----------------------------------|
E----------------------------------|

Guitar solo:

e---------------------5---|--------------------------|
b-7p5-7-5-5h7~--7h5-7-----|-7p5-7-7-7b-7-5---5b-5----|
g-----------------------7~|----------------7------7~-|
d-------------------------|--------------------------|
a-------------------------|--------------------------|
E-------------------------|--------------------------|

            hold bend 
e-----5-------5-5---5-5h7--7///--5///-5h7-|
b-5h7---7--7b-----------------------------|
g-----------------------------------------|
d-----------------------------------------|
a-----------------------------------------|
E---------------------------**************|

e-7///--5///--7///--5///-5h7---|
b------------------------------|
g------------------------------|
d------------------------------|
a------------------------------|
E******************************|

***** = listen to the CD hard and figure out 
         the rythm yourself.    

Added On December 5th, 2013

SHARE

Comments

blog comments powered by Disqus

VERSIONS

ADVERTISEMENT