Machine Head Tabs

Only The Names

4 versions

TAB

            Only The Names Tab by Machine Head


Intro with effect pedal
|-------------------------------------------|
|-------------------------------------------|
|--7---7---8---5-------7---7---8---11--(11)-| x2
|----0---0---0-----------0---0---0----------|
|-------------------------------------------|
|-------------------------------------------|

|-----------------------------------------------------------------|
|-----------------------------------------------------------------|
|--7---7---8---5---7---7---8---11---7---7---8---5---7---7---8---5-|
|----0---0---0---0---0---0---0----0---0---0---0---0---0---0---0---|x2
|-----------------------------------------------------------------|
|-----------------------------------------------------------------|
       
Chorus
                                           
Guitar 1
|------------------|
|------------------|
|------------------|
|-4-4-5-2--4-4-5-5-|
|-4-4-5-2--4-4-5-5-|
|-2-2-3-0--2-2-3-3-|

Guitar 2
|--------------------------|
|---------------------18---|
|------------------17------|
|---------------15---------|
|-4-4-5-2--4-4-------------|
|-2-2-3-0--2-2-------------|


|-----------------------------------------------------------------|
|-----------------------------------------------------------------|
|--7---7---8---5---7---7---8---11---7---7---8---5---7---7---8---5-|
|----0---0---0---0---0---0---0----0---0---0---0---0---0---0---0---|
|-----------------------------------------------------------------|
|-----------------------------------------------------------------|
                                                 

Sorry But thats all i know    

Added On December 5th, 2013

SHARE

Comments

blog comments powered by Disqus

VERSIONS

ADVERTISEMENT