Manic Street Preachers Tabs

Walk Me To The Bridge

1 versions

TAB

            -------------------------------------------------------------------------------
                   WALK ME TO THE BRIDGE - Manic Street Preachers
-------------------------------------------------------------------------------
Tabbed by: kingsleyrjones
Tuning: Standard

A great tune.
Included pretty much everything I can hear including second guitar parts in 3rd and 4th verse.
Huge overdrive for the choruses, and off you rock!

Intro:

e|----------------------------------------------------------------------------------|
B|----------------------------------------------------------------------------------|
G|----------------------------------------------------------------------------------|
D|----0---0---0---0---0---0---0---0---0---0---0---0---0---0---0---0---0---0---0---0-|
A|--2---2---2---2---2---2---2---2-------------------2---2---2---2---2---2---2---2---|
E|----------------------------------3---3---3---3-----------------------------------|

Verse One:
e|----------------------------------------------------------------------------------|
B|----------------------------------------------------------------------------------|
G|----------------------------------------------------------------------------------|
D|----0---0---0---0---0---0---0---0---0---0---0---0---0---0---0---0---0---0---0---0-|
A|--2---2---2---2---2---2---2---2-------------------2---2---2---2---2---2---2---2---|
E|----------------------------------3---3---3---3-----------------------------------| (x2)

Verse Two:

("Old songs leave long shadows...")
e|--------------------------------------|
B|--------------------------------------|
G|--------------------------------------|
D|----0---0---0---0---0---0---0---0---0-|
A|------------------2---2---2---2---2---|
E|--3---3---3---3-----------------------| (x3)

("Curled like an animal lying on the floor")
e|----------------------------------------------------------------------|
B|----------------------------------------------------------------------|
G|----------------------------------------------------------------------|
D|----------------------------------------------------------------------|
A|----7---7---7---7---5---5---5---5---7---7---7---7---5---5---5---5-----|
E|--5---5---5---5---3---3---3---3---5---5---5---5---3---3---3---3---3---|

Chorus + Bridge:

     Dsus4  D       D5    D     Dsus4  D       D5    D       Asus4  A    Bsus4  B

e|----333---2-------000---2------333---2-------000---2--------000---0-----000---0--|
B|----333---3-------333---3------333---3-------333---3--------555---5-----777---7--|
G|----222---2-------222---2------222---2-------222---2--------777---6-----999---8--|
D|------------------------------------------------------------777---7-----999---9--|
A|---------------------------------------------------------------------------------|
E|---------------------------------------------------------------------------------|

Verse Three:
e|----------------------------------------------------------------------------------|
B|----------------------------------------------------------------------------------|
G|----------------------------------------------------------------------------------|
D|----0---0---0---0---0---0---0---0---0---0---0---0---0---0---0---0---0---0---0---0-|
A|--2---2---2---2---2---2---2---2-------------------2---2---2---2---2---2---2---2---|
E|----------------------------------3---3---3---3-----------------------------------| (x2)

Second Guitar Licks in Verse Three:      
e|---------------------7-----------|
B|---2~~~--------------7-----------|
G|---------------------7-----------|
D|---------------------------------|
A|---------------------------------|
E|---------------------------------|

Verse Four:

("The roads never end, the motion starts...")
e|--------------------------------------|
B|--------------------------------------|
G|--------------------------------------|
D|----0---0---0---0---0---0---0---0---0-|
A|------------------2---2---2---2---2---|
E|--3---3---3---3-----------------------| (x3)

("Singing it loud at the indie disco")
e|----------------------------------------------------------------------|
B|----------------------------------------------------------------------|
G|----------------------------------------------------------------------|
D|----------------------------------------------------------------------|
A|----7---7---7---7---5---5---5---5---7---7---7---7---5---5---5---5-----|
E|--5---5---5---5---3---3---3---3---5---5---5---5---3---3---3---3---3---|

Second Guitar Part in Verse Four:

e|---7---7---7---7---7---7---9---7---9---7-|
B|---9---7---9---7---9---7---11--9---11--9-|
G|---7---7---7---7---7---7---9---7---9---7-|
D|-----------------------------------------|
A|-----------------------------------------|
E|-----------------------------------------|

Chorus + Bridge:

     Dsus4  D       D5    D     Dsus4  D       D5    D       Asus4  A    Bsus4  B

e|----333---2-------000---2------333---2-------000---2--------000---0-----000---0--|
B|----333---3-------333---3------333---3-------333---3--------555---5-----777---7--|
G|----222---2-------222---2------222---2-------222---2--------777---6-----999---8--|
D|------------------------------------------------------------777---7-----999---9--|
A|---------------------------------------------------------------------------------|
E|---------------------------------------------------------------------------------|


Thank you and enjoy.

kingsley    

Added On July 10th, 2014

SHARE

Comments

blog comments powered by Disqus

ADVERTISEMENT