Martina Mcbride Tabs

Do What You Do

2 versions

TAB

            #----------------------------------PLEASE NOTE--------------------------------# 
#This file is the author's own work and represents their interpretation of the#
#song. You may only use this file for private study, scholarship, or research.# 
#-----------------------------------------------------------------------------# 
#-----------------------------------------------------------------------------# 
# If you like this tab, please rate it above. Thank you. 
#-----------------------------------------------------------------------------# 
Tabbed by John Shaw (jashaw@shaw-web.net) 

Intro 
 (G-Gsus4)x2  Em9no5 /D - C Em9no5 /D  G  Em9no5 /D - C - Em9no5 /D 
e|-3-3-3-3--3--------0------3--------0-------3-|
B|-0-1-0-1--0--------1------0--------1-------0-|
G|-0-0-0-0--0-----0--0---0--0-----0--0----0--0-|
D|-0-0-0-0--0----4-4-2--4-4-0----4-4-2---4-4-0-|
A|-2-2-2-2--2-3/5---3-/5----2-3/5---3--/5----2-|
E|-3-3-3-3-3--------X------3--------X-------3--|

Verse I
Bb                 Dm7            Gm            Eb          Bb
Slow down that's right                  give it all you got
Dm7   Gm   Eb                                   
Yeah           you got the right stuff 
Bb             Dm7            Gm            Eb                  
Kick back let go                            Trust yourself
        Bb       Dm7  Gm                    Eb
you know yeah what you got is good enough

Chorus 
G   Em9no5 /D - C - Em9no5 /D  G  Em9no5 /D - C - Em9no5 /D 
e|-3--------0------3--------0-------3-|
B|-0--------1------0--------1-------0-|
G|-0-----0--0---0--0-----0--0----0--0-|
D|-0----4-4-2--4-4-0----4-4-2---4-4-0-|
A|-2-3/5---3-/5----2-3/5---3--/5----2-|
E|-3--------X------3--------X-------3-|
Hey don't give 'em what they think they 
Want 'Cause they don't have a clue
Yeah if you really wanna give 'em something 

  Em                                 A~~~~~~~~C
e|-0---------------------------------3-0-0-0--0-------------|
B|-0---------------------------------0-0-3-0--1-------------|
G|-0---------------------------------2-2-2-2--0-------------|
D|-2---------------------------------2-2-2-2--2-------------|
A|-2---------------------------------0-0-0-0--3-------------|
E|-0---------------------------------X-X-X-X--X-------------|
  Different, something to sink their teeth into

                              D    D n/c    C – Em7/B - D
Well baby then you just do what you do


 
Verse II
Bb                 Dm7            Gm            Eb       Bb
All eyes were on Alice they laughed and made her cry
Dm7   Gm   Eb                                   
Yeah she was a little different but hey you know what
Bb             Dm7            Gm            Eb                  
She found a way to fly 
        Bb       Dm7  Gm                    Eb
You see Alice she got her strength from the inside

Repeat Chorus

Bridge
   Eb~~~~~~~~~~~~~~~~~~~~~~~~~~~~~~~~~~
e|--------------------------------------------------------|
B|-7-7-7-7-7-7-7-7-7-7-7-7-7-7-7-7-7-7-7------------------|
G|-8-8-8-8-8-8-8-8-8-8-8-8-8-8-8-8-8-8-8------------------|
D|--------------------------------------------------------|
A|--------------------------------------------------------|
E|--------------------------------------------------------|
   The cost of living just went up today     

   Gb~~~~~~~~~~~~~~~~~~~~~~~~~~~~~~~~~~~~~
e|--------------------------------------------------------|
B|-7-7-7-7-7-7-7-7-7-7-7-7-7-7-7-7-7-7-7-7----------------|
G|-6-6-6-6-6-6-6-6-6-6-6-6-6-6-6-6-6-6-6-6----------------|
D|--------------------------------------------------------|
A|--------------------------------------------------------|
E|--------------------------------------------------------|
   As soon as you started doing things your way

   Ab~~~~~~~~~~~~~~~~~~~~~~~~~~~~~~~~~~~~~
e|----------------------------------------------------------|
B|-7-7-7-7-7-7-7-7-7-7-7-7-7-7-7-7-7-7-7-7------------------|
G|-5-5-5-5-5-5-5-5-5-5-5-5-5-5-5-5-5-5-5-5------------------|
D|----------------------------------------------------------|
A|----------------------------------------------------------|
E|----------------------------------------------------------|
   You'll be shakin' 'em off your coat tails from every side 

   B~~~~~~~~~~~~~~~~~~~~~~~~~~~~~~~Bb~~~~~~~~
e|--------------------------------------------|
B|-4-4-4-4-4-4-4-4-4-4-4-4-4-4-4-4-3-3-3-3-3--|
G|-4-4-4-4-4-4-4-4-4-4-4-4-4-4-4-4-3-3-3-3-3--|
D|--------------------------------------------|
A|--------------------------------------------|
E|--------------------------------------------|
   They'll be trying to catch that free ride

Repeat Chorus

G   Em9no5 /D - C - Em9no5 /D  G  Em9no5 /D - C - Em9no5 /D 
e|-3--------0------3--------0-------3-|
B|-0--------1------0--------1-------0-|
G|-0-----0--0---0--0-----0--0----0--0-|
D|-0----4-4-2--4-4-0----4-4-2---4-4-0-|
A|-2-3/5---3-/5----2-3/5---3--/5----2-|
E|-3--------X------3--------X-------3-|
Do what you do    

Added On December 16th, 2013

SHARE

Comments

blog comments powered by Disqus

VERSIONS

ADVERTISEMENT