McFly Tabs

Corrupted

3 versions

TAB

            Mcfly - Corrupted - Radio:ACTIVE

Listen to the song with the tab, this will help you a lot!


Intro (starts with chord with volume swell)
e|-----------------------------------------------|
B|-----------------------------------------------|
G|-----------------------------------------------|
D|---6-6-6-6-6--6-8-9--10-10-10-10-10----10-9-8--|
A|---6-6-6-6-6--6-8-9--10-10-10-10-10----10-9-8--|
E|---4-4-4-4-4--4-6-7--8--8--8--8--8-----8--7-6--|

e|-----------------------------------------------|
B|-----------------------------------------------|
G|-------------------------------------7-8-10----|
D|---6-6-6-6-6--6-8-9--10-10-10-10-10--7-8-10----|
A|---6-6-6-6-6--6-8-9--10-10-10-10-10--5-6-8-----|
E|---4-4-4-4-4--4-6-7--8--8--8--8--8-------------|


Verse(palm muted)
e|---------------------------------------------------------------------------|
B|---------------------------------------------------------------------------|
G|---------------------------------------------------------------------------|
D|---6-6-6-6-6-6-6-6---5-5-5-5-5-5-5-5---4-4-4-4-4-4-4-4---5-5-5-5-5-5-5-5---|
A|----8-8-8-8-8-8-8-8---6-6-6-6-6-6-6-6---5-5-5-5-5-5-5-5---5-5-5-5-5-5-5-5--|
E|---------------------------------------------------------------------------|

e|---------------------------------------------------------------------------|
B|---------------------------------------------------------------------------|
G|---------------------------------------------------------------------------|
D|---6-6-6-6-6-6-6-6---5-5-5-5-5-5-5-5---4-4-4-4-4-4-4-4---5-5-5-5-5-5-5-5---|
A|----8-8-8-8-8-8-8-8---6-6-6-6-6-6-6-6---5-5-5-5-5-5-5-5--5-5-5-5-5-5-5-5---|
E|---------------------------------------------------------3-3-3-3-3-3-3-3---|
                                                           (dont mute this)
Verse(lead) 
e|---------------------------------------------------------------------------|   
B|---8-6-------6----------------------------------------------------6--------|      
G|-------8-7-8---8-7-8-5---8-7-8-5--8-7-8-5--8-7-8-7----8-7-8-7---8---8-7----|  
D|---------------------------------------------------------------------------|       
A|---------------------------------------------------------------------------|        
E|---------------------------------------------------------------------------|    


Chorus
e|------------------------------------------|
B|------------------------------------------|
G|-------------------------------------5----|
D|---6-----8----10-----8----6-----5----5-x8-|
A|---6-x12-8-x4-10-x12-8-x4-6-x16-5-x8-3----|
E|---4-----6----8------6----4-----3---------|

e|--------------------------|
B|--------------------------|
G|--------------------------|
D|---6-----8----10-----8----|
A|---6-x12-8-x4-10-x16-8-x8-|
E|---4-----6----8------6----|

Chorus(lead)
e|----8-6---------8-6-----------|
B|--8----------8------8bu9bd8---|
G|-------8----------------------|
D|------------------------------|
A|------------------------------|
E|------------------------------|


Intro  
e|-----------------------------------------------|
B|-----------------------------------------------|
G|-----------------------------------------------|
D|---6-6-6-6-6--6-8-9--10-10-10-10-10----10-9-8--|
A|---6-6-6-6-6--6-8-9--10-10-10-10-10----10-9-8--|
E|---4-4-4-4-4--4-6-7--8--8--8--8--8-----8--7-6--|


Verse(palm muted)
e|---------------------------------------------------------------------------|
B|---------------------------------------------------------------------------|
G|---------------------------------------------------------------------------|
D|---6-6-6-6-6-6-6-6---5-5-5-5-5-5-5-5---4-4-4-4-4-4-4-4---5-5-5-5-5-5-5-5---|
A|----8-8-8-8-8-8-8-8---6-6-6-6-6-6-6-6---5-5-5-5-5-5-5-5---5-5-5-5-5-5-5-5--|
E|---------------------------------------------------------------------------|

e|---------------------------------------------------------------------------|
B|---------------------------------------------------------------------------|
G|---------------------------------------------------------------------------|
D|---6-6-6-6-6-6-6-6---5-5-5-5-5-5-5-5---4-4-4-4-4-4-4-4---5-5-5-5-5-5-5-5---|
A|----8-8-8-8-8-8-8-8---6-6-6-6-6-6-6-6---5-5-5-5-5-5-5-5--5-5-5-5-5-5-5-5---|
E|---------------------------------------------------------3-3-3-3-3-3-3-3---|

Verse(lead) 
e|---------------------------------------------------------------------------|   
B|---8-6-------6----------------------------------------------------6--------|      
G|-------8-7-8---8-7-8-5---8-7-8-5--8-7-8-5--8-7-8-7----8-7-8-7---8---8-7----|  
D|---------------------------------------------------------------------------|       
A|---------------------------------------------------------------------------|        
E|---------------------------------------------------------------------------| 

e|--------------------------------------------------------------------------|
B|--------------------------------------------------------------------------|
G|--------------------------------------------------------------------------|
D|--6-6-6-6-6-6-6-6-6-6-6-6-6-6-6-6-5-5-5-5-5-5-5-5-------------------------|
A|--6-6-6-6-6-6-6-6-6-6-6-6-6-6-6-6-5-5-5-5-5-5-5-5-------------------------|
E|--4-4-4-4-4-4-4-4-4-4-4-4-4-4-4-4-3-3-3-3-3-3-3-3-pick scrape-------------|
pm  . . . . . . . . . . . . . . . .


Chorus
e|------------------------------------------|
B|------------------------------------------|
G|-------------------------------------5----|
D|---6-----8----10-----8----6-----5----5-x8-|
A|---6-x12-8-x4-10-x12-8-x4-6-x16-5-x8-3----|
E|---4-----6----8------6----4-----3---------|

e|--------------------------|
B|--------------------------|
G|--------------------------|
D|---6-----8----10-----8----|
A|---6-x12-8-x4-10-x16-8-x8-|
E|---4-----6----8------6----|

Chorus(lead)
e|----8-6---------8-6-----------|
B|--8----------8------8bu9bd8---|
G|-------8----------------------|
D|------------------------------|
A|------------------------------|
E|------------------------------|


Bridge
e|-----------------------------------------------|
B|-----------------------------------------------|
G|---------8------------8----7----------8--------|
D|---6-----8-x16-6------8-x8-7-x8-6-----8-x16-5--|
A|---6-x16-6-----6-x16--6----5----6-x16-6-----5--|
E|---4-----------4----------------4-----------3--|

Bridge(lead)
e|-------3-3------------------6-6------------|         
B|-----------4-4-3-3-x2-----------9-9-8-8-x2-|         
G|---5-5------------------8-8----------------|  
D|-------------------------------------------| x3         
A|-------------------------------------------|         
E|-------------------------------------------|    



Intro
e|-----------------------------------------------|
B|-----------------------------------------------|
G|-----------------------------------------------|
D|---6-6-6-6-6--6-8-9--10-10-10-10-10----10-9-8--|
A|---6-6-6-6-6--6-8-9--10-10-10-10-10----10-9-8--|
E|---4-4-4-4-4--4-6-7--8--8--8--8--8-----8--7-6--|

e|-----------------------------------------------|
B|-----------------------------------------------|
G|-----------------------------------------------|
D|---6-6-6-6-6--6-8-9--10-10-10-10-10----10-9-8--|
A|---6-6-6-6-6--6-8-9--10-10-10-10-10----10-9-8--|
E|---4-4-4-4-4--4-6-7--8--8--8--8--8-----8--7-6--|
e|-----------------------------------------------|
B|-----------------------------------------------|
G|-----------------------------------------------|
D|---6-6-6-6-6--6-8-9--10-10-10-10-10----10-9-8--|
A|---6-6-6-6-6--6-8-9--10-10-10-10-10----10-9-8--|
E|---4-4-4-4-4--4-6-7--8--8--8--8--8-----8--7-6--|
pm   . . . . 
e|---------------------------------------------------------------------------|
B|---------------------------------------------------------------------------|
G|---------------------------------------------------------------------------|
D|---6-6-6-6-6----6-8-9---5-5-5-5--5-5-5-5-----------------------------------|
A|---6-6-6-6-6----6-8-9---5-5-5-5--5-5-5-5-----------------------------------|
E|---4-4-4-4-4----4-6-7---3-3-3-3--3-3-3-3-----------------------------------|
pm                        . . .    . . .


Breakdowny buildup(listen to song for strum pattern)   
e|---4--8--4--3---|
B|---4--8--4--3---|
G|---5--8--5--4---|
D|----------------|
A|----------------|
E|----------------|


Chorus
e|------------------------------------------|
B|------------------------------------------|
G|-------------------------------------5----|
D|---3-----8----10-----8----6-----5----5-x8-|
A|---3-x12-8-x4-10-x12-8-x4-6-x16-5-x8-3----|
E|---1-----6----8------6----4-----3---------|

e|---------------------------------------------|
B|---------------------------------------------|
G|----------------------------------5-5-5-5----|
D|---6-----8----10-----8-----5------5-5-5-5----|
A|---6-x12-8-x4-10-x16-8-x16-5-x16--3-3-3-3-x2-|
E|---4-----6----8------6-----3-----------------|
pm                                  . . . 
Chorus(lead)
e|----8-6---------8-6-----------|
B|--8----------8------8bu9bd8---|
G|-------8----------------------|
D|------------------------------|
A|------------------------------|
E|------------------------------|


The end!    

Added On December 16th, 2013

SHARE

Comments

blog comments powered by Disqus

VERSIONS

ADVERTISEMENT