McFly Tabs

Pov

2 versions

TAB

            McFly
POV
Radio:ACTIVE
Tuning:Standart

INTRO 
Let the piano do it or play this:
     G         D/F#               D
e|---------|-----------|-------2--------2-2-2-3-|
B|------3--|--------3--|-----3----3---3---------|
G|----0----|------2----|---2--------2-----------|
D|--0------|----0------|-0----------------------|
A|---------|-----------|------------------------|
E|3--------|-2---------|------------------------|


VERSE 1
     G         D/F#               D
e|---------|-----------|-------2--------2-2-2-3-|
B|------3--|--------3--|-----3----3---3---------|
G|----0----|------2----|---2--------2-----------|
D|--0------|----0------|-0----------------------| x2
A|---------|-----------|------------------------|
E|3--------|-2---------|------------------------|


e|------------------------|
B|------------------------|
G|--5-5--5-5-5--5-5-5--7--|
D|--5-5--5-5-5--5-5-5--7--|
A|--3-3--3-3-3--3-3-3--5--|
E|------------------------|

CHORUS
e|--------------------------------------------------------------------| 
B|--------------------------------------------------------------------| 
G|-----------------4444444444444444-55555555555555----------77777777--| 
D|--22222222222222-4444444444444444-55555555555555-55555555-77777777--| x2
A|--22222222222222-2222222222222222-33333333333333-55555555-55555555--| 
E|--00000000000000---------------------------------33333333-----------| 


VERSE 2
     G         D/F#               D
e|---------|-----------|-------2--------2-2-2-3-|
B|------3--|--------3--|-----3----3---3---------|
G|----0----|------2----|---2--------2-----------|
D|--0------|----0------|-0----------------------| x2
A|---------|-----------|------------------------|
E|3--------|-2---------|------------------------|

e|------------------------|
B|------------------------|
G|--5-5--5-5-5--5-5-5--7--|
D|--5-5--5-5-5--5-5-5--7--|
A|--3-3--3-3-3--3-3-3--5--|
E|------------------------|

CHORUS
e|--------------------------------------------------------------------| 
B|--------------------------------------------------------------------| 
G|-----------------4444444444444444-55555555555555----------77777777--| 
D|--22222222222222-4444444444444444-55555555555555-55555555-77777777--| x2
A|--22222222222222-2222222222222222-33333333333333-55555555-55555555--| 
E|--00000000000000---------------------------------33333333-----------| 


SOLO
e|--------------------------------------|
B|--------------------------------------|
G|-9-13-14-16-19--17--16--14--11s12-11--|
D|-9-13-14-16-19--17--16--14--11s12-11--|
A|-7-11-12-14-17~-15~-14~-12~-9s10--9~~-|
E|--------------------------------------|

e|----------------------------------------|
B|----------------------------------------|
G|-9-11-12-14-17--16--14--16--12---11-9---|
D|-9-11-12-14-17--16--14--16--12---11-9---|
A|-7-9--10-12-15~-14~-12--14--10~~-9--7~--|
E|----------------------------------------|

e|-----------------------------|
B|-----------------------------|
G|-9-13-14-16-19--17--16--14---|
D|-9-13-14-16-19--17--16--14---|
A|-7-11-12-14-17~-15~-14~-12~--|
E|-----------------------------|
                    
e|-----------------------------------------------------------------------|
B|-----------------------------------------------------------------------|
G|-----------------------------------------------------------------------|
D|-//1212121212121212-1414141414141414-1616161616161616-1717171717171717-|
A|-----------------------------------------------------------------------|
E|-----------------------------------------------------------------------|

      
CHORUS
e|--------------------------------------------------------------------| 
B|--------------------------------------------------------------------| 
G|-----------------4444444444444444-55555555555555----------77777777--| 
D|--22222222222222-4444444444444444-55555555555555-55555555-77777777--| x2
A|--22222222222222-2222222222222222-33333333333333-55555555-55555555--| 
E|--00000000000000---------------------------------33333333-----------| 


VERSE 3
     G         D/F#               D
e|---------|-----------|-------2--------2-2-2-3-|
B|------3--|--------3--|-----3----3---3---------|
G|----0----|------2----|---2--------2-----------|
D|--0------|----0------|-0----------------------| x3
A|---------|-----------|------------------------|
E|3--------|-2---------|------------------------|    

Added On December 16th, 2013

SHARE

Comments

blog comments powered by Disqus

VERSIONS

ADVERTISEMENT