McLusky Tabs

World Loves Us And Is Our Bitch

1 versions

TAB

            World Loves Us And Is Our Bitch Tab by Mclusky


mclusky - The World Loves Us & Is Our Bitch


Intro / Chorus

E [-12----------------------------------------]
B [----13-------------------------------------]
G [-------14------12---14-14-12-14b15---14-12-]   [-14---b---15-] played on last time before verse
D [-------------------------------------------]
A [-------------------------------------------]
E [-------------------------------------------]


Verse

[-12---------x---x-x-x-x-x-x-------------------------x-x-x-x-x-x-x-x-]
[----13------x---x-x-x-x-x-x-------------------------x-x-x-x-x-x-x-x-]
[-------14---x---x-x-x-x-x-x---12---14-12-14b15-14---x-x-x-x-x-x-x-x-]
[------------x---x-x-x-x-x-x-------------------------x-x-x-x-x-x-x-x-]
[--------------------------------------------------------------------]
[--------------------------------------------------------------------]


Outro

G [-14-14-14-14---etc--->    

Added On December 5th, 2013

SHARE

Comments

blog comments powered by Disqus

ADVERTISEMENT