TAB

            Science Fiction Tab by Me First And The Gimme Gimmes


Science Fiction Double Feature by Me First And The Gimme Gimme


This is a pretty easy song and goes well at Halloween parties
 
intro: 
 e----------------------
 b----------------------
 G---7---5---3---5---2--
 D---7---5---3---5---2--
 A---5---3---1---3---0--
 E----------------------


 verse: palm mute

 e------------
 b------------
 G---7775553332
 D---7775553332
 A---5553331110
 E-------------


Chorus:

 e--------------------
 b--------------------
 G-----------7---5---3
 D---5---7---7---5---3
 A---5---7---5---3---1
 E---3---5------------thats it, any questions email me at SynapticFire@hotmail.com    

Added On December 5th, 2013

SHARE

Comments

blog comments powered by Disqus

VERSIONS

ADVERTISEMENT