Me First and the Gimme Gimmes Tabs

Some Where Over The Rainbow

1 versions

TAB

            Some Where Over The Rainbow Tab by Me First And The Gimme Gimmes


Any Problems Email me at: Bread@punkhardcore.net
In the intro, play bass first:

Eii, C, D,
(C minor)
e|-----------------3---------------------------|
b|------------------4--------------------------|
g|-----4---5----------6-------9-------7--------|
d|-5---4---5---5-----5----5---9---7---7---5----|
a|-5---2---3---5----------5---7---7---5---5----|
E|-3-----------3----------3-------5-------3----|
Somewhere over the rainbow......

e|---------------------------------------------|
b|---------------------------------------------|
g|-----5-------7----------9-------7------------|
d|-5---5---5---7------5---9---7---7------------|
a|-5---3---5---5------5---7---7---5------------|
E|-3-------3----------3-------5----------------|

(Repeat Chorus)

(solo)
e|---------------------------------------------|
b|---------------------------------------------|
g|-----5-------7-------------------------------|
d|-5---5---5---7-------------------------------|
a|-5---3---5---5-------------------------------|
E|-3-------3-----------------------------------|

e|---------------------------------------------|
b|---------------------------------------------|
g|---------------------------------------------|
d|-5------7------10--9--7--9----------------5--|
a|-5------7------10--9--7--9----------------5--|
E|-3------5------8---7--5--7----------------3--|
If that little blue birds......why can't I???Somewhere Over The Rainbow Tab by Me First And The Gimme Gimmes


Artist: Me first and the gimme gimmes
Song: Over the rainbow
Tabbed by: Daniel McDougall
email: ur_such_a_bore@hotmail.com

Tuning: regular.

    > = keep strumming
    P... = palm mute
    
     . = stop, then carry on with the next chord
          ( in the intro)

listen to the song for strumings patterns.


Chorus

e|------------------|----------------------|
b|------------------|----------------------|
g|------4---5-------|--5------9-----7------|
d|--5---4->-5->-5---|--5->-5--9--7--7--5---|   X2
a|--5->-2---3---5->-|--3---5--7--7--5--5->-|
E|--3-----------3---|------3-----5-----3---|

Verse

e|--------------------------------------------|
b|--------------------------------------------|
g|------------------------------------7-------|
d|--5-5----------7-7---------5-5------5->>>>>-|
a|--5-5->>------ 7-7->>----- 5-5->>---5-------|
E|--3-3----------5-5---------3-3--------------|
      P...         P...        P...

e|-----------8-8---------------------|
b|-----------7-7---------------------|
g|-----------8-8->>------------7-----|
d|--5-5------7-7------7-7------7->---|
a|--5-5->>------------7-7->>---5-----|
E|--3-3---------------5-5------------|
      P...     P...     P...

Chorus.

Solo.

e|-----------------------------------3-2-----2-3-5-7---7-5-3--|
b|---3-0-3-0-3-0-3-0---3-1-3-1-3-1-3-----3-3------------------|
g|------------------------------------------------------------|
d|------------------------------------------------------------|
a|------------------------------------------------------------|
E|------------------------------------------------------------|

Outro.

e|-------------|------------------------------------12--|
b|-------------|----------------------------------------|
g|-------------|--5----4----2----7---------------10-----|
d|--5----7-----|--5-.--4-.--2-.--7-.-PAUSE-.----9-------|
a|--5->--7->---|--3----2----0----5------------10--------|
E|--3----5-----|----------------------------------------|    

Added On December 5th, 2013

SHARE

Comments

blog comments powered by Disqus

ADVERTISEMENT