Meiko Tabs

The Saddest Song In The World

1 versions

TAB

            The Saddest Song in the World, by Meiko
tabbed by joepurdyfan


Standard tuning, no capo

chords: 	x5403x
		x0403x
		x2403x
		3x000x

e|------------------------------------------------------------------|
B|--------3-----3---------3-----3--------3-----3--------0-----0-----|
G|------0---0-----------0---0----------0---0----------0---0---------|
D|----4-------4-------4-------4------4-------4------0-------0-------|
A|--5---------------0--------------2--------------------------------|
E|------------------------------------------------3-----------------|

I wake up
And you’re gone
The tv’s still on
And I sit
And I watch
Another rerun
She is left all alone
Her lover's out to sea
And I can’t help her feel that she is just like me

And I gave all I could but it wasn't good enough
and you said that you'd be here before I woke up
now you’re gone

I don't know why
My heart still beats
And I can't feel
Anything

Cuz I gave all I could but it wasn't good enough
And you said that you would be here before I woke up
Now you’re gone
Away…
Now you’re gone
Away…

[Here she plays the following, with some variation. 
Alternate between the two on the 2nd, 3rd, and 4th 
use of the word ‘take,’ but not on the 1st]

e|--------------------------------------|
B|--------0-----0------------0-----0----|
G|------0---0--------------0---0--------|
D|----0-------0----------0-------0------|
A|--------------------------------------|
E|--3------------------0----------------|
    repeat 4x	  repeat 4x

Why don't you take me with you
come and take me
with you
come and take me
with you
come and take me
With you

Cuz I gave all I could but it wasn't good enough
And you said that you'd be here before I woke up
Now you’re gone.
Oh, oh oh oh oh, oh oh oh oh, oh oh ohhh, oh oh oh oh oh ohhhhhh.    

Added On December 16th, 2013

SHARE

Comments

blog comments powered by Disqus

ADVERTISEMENT