Metallica Tabs

My Apocalypse

8 versions

TAB

            Metallica – My Apocalypse
Standard Tuning (eGBDAE)
Another wicked song from Death Magnetic!
			
		                                  
-------------------------------------------------|-----------------|
-------------------------------------------------|-----------------|
-7/9-------------7/9-------------7/9-------------|-----------------|
-7/9-------------7/9-------------7/9-------------|-----------------|
-5/7-------------5/7-------------5/7-------------|-5p4---5p4---5p4-|
-----0-0-0-0-0-0-----0-0-0-0-0-0-----0-0-0-0-0-0-|-----0-----0-----|

-----------------------------------------------------------------| x2
-----------------------------------------------------------------|
-7/9-------------7/9-------------7/9-----------------------------|
-7/9-------------7/9-------------7/9-----------------------------|
-5/7-------------5/7-------------5/7-------------5p4---5p4---5p4-|
-----0-000—0-0-0-----0-000-0-0-0-----0-000—0-0-0-----0-----0-----|

----------------------------------------------------------------| x2
----------------------------------------------------------------|
----------------------------------------------------------------|
-3/5------------3/5------------3/5------------------------------|
-5/7------------5/7------------5/7--------------5p4---5p4---5p4-|
-----0-0----0-0-----0-0----0-0-----0-0------0-0-----0-----0-----|

Claustrophobic…
-----------------------------------------------------------|
-----------------------------------------------------------|
-----------------------------------------------------------|
-5-------------5-------------5-----------------------------|
-7-------------7-------------7-------------5p4---5p4---5p4-|
---0-000—0-0-0---0-000-0-0-0---0-000—0-0-0-----0-----0-----|

Fear thy name…
------------------------| 
------------------------|
--------------------4-7-|
-4--------------5-5-4-7-|
-4--------------5-5-2-5-|
-2--2-222-2-2-2-3-3-----|

-----------------------------|
-----------------------------|
-----------------------------|
-4---------------------------|
-4---------------------------|
-2-2-222-222-222-222-222-222-|

So we cross…
---------------------------------------------------------------|
---------------------------------------------------------------|
---------------------------------------------------------------|
-5\--------5\--------5\----------------------------------------|
-7\--------7\--------7\--------5p4---5p4---5p4-7p6---7p6---7p6-|
-----0---0-----0---0-----0---0-----0-----0---------0-----0-----|

Suffer onto my apocalypse!
--------------------------|
--------------------------|
------------------8-8-8-8-|
-7\6-7\6-7\6-7\6--8-8-8-8-|
-5\4-5\4-5\4-5\4--6-6-6-6-|
--------------------------|

Deadly vision…
-----------------------------------------------------------|
-----------------------------------------------------------|
-----------------------------------------------------------|
-5-------------5-------------5-----------------------------|
-7-------------7-------------7-------------5p4---5p4---5p4-|
---0-000—0-0-0---0-000-0-0-0---0-000—0-0-0-----0-----0-----|

Fear thy name…
------------------------| 
------------------------|
--------------------4-7-|
-4--------------5-5-4-7-|
-4--------------5-5-2-5-|
-2--2-222-2-2-2-3-3-----|

-----------------------------|
-----------------------------|
-----------------------------|
-4---------------------------|
-4---------------------------|
-2-2-222-222-222-222-222-222-|

So we cross…
---------------------------------------------------------------|
---------------------------------------------------------------|
---------------------------------------------------------------|
-5\--------5\--------5\----------------------------------------|
-7\--------7\--------7\--------5p4---5p4---5p4-7p6---7p6---7p6-|
-----0---0-----0---0-----0---0-----0-----0---------0-----0-----|

Suffer onto my apocalypse!
--------------------------|
--------------------------|
------------------8-8-8-8-|
-7\6-7\6-7\6-7\6--8-8-8-8-|
-5\4-5\4-5\4-5\4--6-6-6-6-|
--------------------------|

-----------------------------------------------------------|
-----------------------------------------------------------|
-----------------------------------------------------------|
-5-------------5-------------5-----------------------------|
-7-------------7-------------7-------------5p4---5p4---5p4-|
---0-000—0-0-0---0-000-0-0-0---0-000—0-0-0-----0-----0-----|

-----------------| x8
-----------------|
---5-4-----4-----|
-2-----3-4---4-3-|
-----------------|
-----------------|

Crushing metal…
--------------------------------------------------------------------|
--------------------------------------------------------------------|
-9------------9\7--------------7/9--------------------5-4-----4-----|
-9------------9\7--------------7/9------------------2-----3-4---4-3-|
-7------------7\5--------------5/7----------------------------------|
---000000-0-0-----0-000000-0-0-----0-000000-0-0-0-0-----------------|

-----------------| x3
-----------------|
---5-4-----4-----|
-2-----3-4---4-3-|
-----------------|
-----------------|

Spit it out!
-----|
-----|
--9--|
--9--|
--7--|
-----|

Rhythm under solo…
-------------------------------------------------------------------| x3
-------------------------------------------------------------------|
-9------------9\7------------------------------------5-4-----4-----|
-9------------9\7-----5/7-----5/7-2----------------2-----3-4---4-3-|
-7------------7\5-----5/7-----5/7-2--------------------------------|
---000000-0-0-----0-0-3/5-0-0-3/5-0-000000-0-0-0-0-----------------|

--------------------------------------------------------------------|
--------------------------------------------------------------------|
-9------------9\7---------------------------------------------------|
-9------------9\7-----5/7-----9-8-7------------7-6-5------------5-4-|
-7------------7\5-----5/7-----9-8-7------------7-6-5------------5-4-|
---000000-0-0-----0-0-3/5-0-0-7-6-5-555555-5-5-5-4-3-333333-3-3-3-2-|

------------| x 6
------------|
------------|
------------|
------------|
-0-0000-0-0-|

---------------------|
---------------------|
---------------------|
---------3-------3-3-|
---------3-------3-3-|
-1-111-1-1-1-111-1-1-|

Guitar 1
---------------------------------------------| x2
---------------------------------------------|
---------------------------------------------|
---------------------------------------------|
---2---2-3-5-3-2-----2-----2---2-3-5-3-------|
-0---0-------------0-----0---0---------1-----|
Guitar 2
---------------------------------------------| x2
---------------------------------------------|
------------7-------------------------7------|
---9---9-10---10-9-----9-----9---9-10---10---|
-7---7---------------7-----7---7-----------8-|
---------------------------------------------|

What makes me drift…
------------------------------------|
------------------------------------|
-9------------9\7-------------------|
-9------------9\7-----5/7-----5/7-2-|
-7------------7\5-----5/7-----5/7-2-|
---000000-0-0-----0-0-3/5-0-0-3/5-0-|

------------------------------------| x2
------------------------------------|
--------------9\7-------------------|
-2------------9\7-----5/7-----5/7-2-|
-2------------7\5-----5/7-----5/7-2-|
-0-000000-0-0-----0-0-3/5-0-0-3/5-0-|

----------------------------------|
----------------------------------|
--------------9\7-----------------|
-2------------9\7-----5/7-----5/7-|
-2------------7\5-----5/7-----5/7-|
-0-000000-0-0-----0-0-3/5-0-0-3/5-|

Meeee…
-----------------| x4
-----------------|
---5-4-----4-----|
-2-----3-4---4-3-|
-----------------|
-----------------|

---------------------------------------------------------------------|
---------------------------------------------------------------------|
---8-7-----7-------8-7-----7-------7-------7-------8--------8--------|
-5-----6-7---7-6-5-----6-7---7-6-5---9-8-7---9-8-7---10-9-8---10-9-8-|
---------------------------------------------------------------------|
---------------------------------------------------------------------|

-------------------|
-------------------|
-------------------|
-5-4-3-2-3-4-5-4-3-|
-5-4-3-2-3-4-5-4-3-|
-3-2-1-0-1-2-3-2-1-|

Claustrophobic…
-----------------------------------------------------------|
-----------------------------------------------------------|
-----------------------------------------------------------|
-5-------------5-------------5-----------------------------|
-7-------------7-------------7-------------5p4---5p4---5p4-|
---0-000—0-0-0---0-000-0-0-0---0-000—0-0-0-----0-----0-----|

Fear thy name…
------------------------| 
------------------------|
--------------------4-7-|
-4--------------5-5-4-7-|
-4--------------5-5-2-5-|
-2--2-222-2-2-2-3-3-----|

-----------------------------|
-----------------------------|
-----------------------------|
-4---------------------------|
-4---------------------------|
-2-2-222-222-222-222-222-222-|

So we cross…
---------------------------------------------------------------|
---------------------------------------------------------------|
---------------------------------------------------------------|
-5\--------5\--------5\----------------------------------------|
-7\--------7\--------7\--------5p4---5p4---5p4-7p6---7p6---7p6-|
-----0---0-----0---0-----0---0-----0-----0---------0-----0-----|

Suffer onto my apocalypse!
--------------------------|
--------------------------|
------------------8-8-8-8-|
-7\6-7\6-7\6-7\6--8-8-8-8-|
-5\4-5\4-5\4-5\4--6-6-6-6-|
--------------------------|

Tyrant awaken…
-----------------------------------------------------|
-----------------------------------------------------|
-----------------------------------------------------|
---------------------------------5-4-3-2-3-4-5-4-3-2-|
---------------------------------5-4-3-2-3-4-5-4-3-2-|
00000000000000000000000000000000-3-2-1-0-1-2-3-2-1-0-|

Strum wildly for ending, then play it sliding out
-----|
-----|
--9--|
--9--|
--7--|
--0--|

Any questions, e-mail matthewmessina@hotmail.com    

Added On December 16th, 2013

SHARE

Comments

blog comments powered by Disqus