Metallica Tabs

My Apocalypse

8 versions

TAB

            My Apocalypse Tab by Metallica

Riff 1
       + + + + + + 3x                    
|------------------|------------------| 
|------------------|------------------|
|------------------|--7/6---7/6---7/6-|
|------------------|--x-----x-----x---|
|--5h7-------------|--5/4---5/4---5/4-|
|--0---0-0-0-0-0-0-|------------------|

Riff 2
       + +     + + 3x      
|------------------|------------------| 
|------------------|------------------|
|------------------|--7/6---7/6---7/6-|
|--5~--------------|--x-----x-----x---|
|--7~--2-2-----2-2-|--5/4---5/4---5/4-|
|------0-0-----0-0-|------------------|

Riff 3
      + +++  + + + 3x
|------------------|------------------| 
|------------------|------------------|
|------------------|--7/6---7/6---7/6-|
|--5~--------------|--x-----x-----x---|
|--7~--------------|--5/4---5/4---5/4-|
|-----0-000--0-0-0-|------------------|

Riff 4
      + +++  + + +                     
|--------------------------------| 
|--------------------------------|
|--------------------------4--7--|
|--4-----------------5--5--4--7--|
|--4-----------------5--5--2--5--|
|--2--2-222--2-2-2---3--3--------|

Riff 5
      + +++  + + + + +  + +++ + + + 
|-----------------------------------|
|-----------------------------------|
|-----------------------------------|
|--4--------------------------------|
|--4--------------------------------|
|--2--2-222--2-2-2-2-2--2-222-2-2-2-|

Chorus:
So we close that line...
         3x
|---------|--------------------------------------|
|---------|--------------------------------------|
|---------|--7/6---7/6--7/6---9/8---9/8--9/8-----|
|--5~~~/x-|--x-----x----x-----x-----x----x-------|
|--7~~~/x-|--5/4---5/4--5/4---7/6---7/6--7/6-----|
|---------|--------------------------------------|

   Suffer    unto   my    a   poc   a  lypse 
|-------------------------------------|
|-------------------------------------|
|--------------------8----8----8----8-|
|--6666666666666666--8----8----8----8-|
|--5555555555555555--6----6----6----6-|
|-------------------------------------|

Riff 6
|--------------------|
|--------------------|
|--------------------|
|---10-9-----9-------|
|-7------8-9---9-8---|
|--------------------|
     + + + + + +  + +       +  + + + + + +  + +       +  + + + + + +  + + + + 
|------------------------------------------------------------------------------|
|------------------------------------------------------------------------------|
|------------------------------------------------------------------------------|
|-9--------------------9\7-----------------------7/9---------------------------|
|-7--------------------7\5-----------------------5/7---------------------------|
|----0-0-0-0-0-0--0-0-------0--0-0-0-0-0-0--0-0-------0--0-0-0-0-0-0--0-0-0-0--|

|-------------------| Repeat 4x (above and side)
|-------------------| Then repeat just this riff 3x and a dive bomb
|-------------------|
|---10-9-----9------|
|-7------8-9---9-8--|
|-------------------|
     + + + + + +  + +       + +       + +          + + + + + +  + +
|------------------------------------------------------------------------------|
|------------------------------------------------------------------------------|
|------------------------------------------------------------------------------|
|-9--------------------9\7-----------------------------------------------------|
|-7--------------------7\5-------5/7-------9\8--7--------------------7/8--5----|
|----0-0-0-0-0-0--0-0-------0-0--3/5--0-0--7\6--5--5-5-5-5-5-5--5-5--5/6--3----|
  + + + + + +  + +
|-------------------------| Repeat under solo as many times as needed
|-------------------------| 
|-------------------------|
|-------------------------|
|-------------------5--4--|
|-3-3-3-3-3-3--3-3--3--2--|

Solo
|--12---12---12---------6---6---6--------7----7----7-----------------|
|--15b--15b--15br15b----9b--9b--9brb----10b--10b--10br10b------------|
|--------------------------------------------------------------------|
|------------------------------------------------------------12b~~~/-|(    

Added On December 16th, 2013

SHARE

Comments

blog comments powered by Disqus