Metro Station Tabs

Shake It

10 versions

TAB

            -------------------------------------------------------------------------------
			     Shake It - Metro Station
-------------------------------------------------------------------------------
Tabbed by: Daniel F. (sgplayer7)
Email: sgplayer7@gmail.com

Tuning: Standard (EADGBe)

This sounds 100% correct. This is my first tab...let me know what you think.

[INTRO]

e|----------------------------------|
B|----------------------------------|
G|-4--4--6--9-9\4--2--2--2--9-9\4---|  (X2)
D|-4--4--6--9-9\4--2--2--2--9-9\4---|
A|-2--2--4--7-7\2--0--0--0--7-7\2---|
E|----------------------------------|


[CHORUS] - [OUTRO]

Now if she does it like this...shake shake shake shake uh shake it...

e|--------------------------------------------------|
B|--------------------------------------------------|
G|-4-4-4-4--6-6--9-9--2-2-2-2-2-2-2-2---------------| (X2)
D|-4-4-4-4--6-6--9-9--2-2-2-2-2-2-2-2---------------|
A|-2-2-2-2--4-4--7-7--0-0-0-0-0-0-0-0---------------|
E|--------------------------------------------------|

Then play this...

Shake shake shake shake uh shake it...

e|----------------------------------|
B|----------------------------------|
G|-4--4--6--9-9\4--2--2--2--9-9\4---|  (X2)
D|-4--4--6--9-9\4--2--2--2--9-9\4---|
A|-2--2--4--7-7\2--0--0--0--7-7\2---|
E|----------------------------------|


That's it! Listen to the song for strumming...






| /  slide up
| \  slide down
| h  hammer-on
| p  pull-off
| ~  vibrato
| +  harmonic
| x  Mute note
===============================================================================    

Added On December 16th, 2013

SHARE

Comments

blog comments powered by Disqus