Mika Tabs

Blues Eyes

1 versions

TAB

            Mika: Blue Eyes
Enjoy this tab; please feel free to leave comments and rate : )

guitar main theme
E|-----------------------------------|
B|-----2----------------2------------|
G|---3--3-------1-----3--3-------1---|
D|-4-----4----3--3--4-----4----3---3-|
A|----------4----------------4-------|
E|-----------------------------------|

E|-----------------------------------|
B|-----4------6-7-----4--------------|
G|---4--4-----------4--4--8--6-------|
D|-6--------4-----6-------8--6-------|
A|--------6---------------6--4-------|
E|-----------------------------------|

Piano main theme
E|------------------------------|
B|-11--11---11---11h12-12-12-11-|
G|---11--11---11----------------|  (x2)
D|------------------------------|
A|------------------------------|
E|------------------------------|

E|------------------------------|
B|------------------------------|
G|-11--11---11--11-11-10-11-----|
D|---9----9---9-----------------|
A|------------------------------|
E|------------------------------|    

Added On December 16th, 2013

SHARE

Comments

blog comments powered by Disqus

ADVERTISEMENT