TAB

            12xu Tab by Minor Threat


song: 12XU
by: minor threat

intro
E--------------------------|
B--------------------------|
G--------------------------|
D--1010--------------------|
A---8-8-10101010--8-8-8-8--|
E--------8-8-8-8--6-6-6-6--|

verse
E---------------------------------------------------------|
B---------------------------------------------------------|
G---------------------------------------------------------|
D---------------------------------------------------------|
A--55555555-55555555-55555555-55555555-55555555-55555555--|
E--33333333-33333333-33333333-33333333-33333333-33333333--|
all of these chords are palm muted(play chords with back of your strumming hand on the 
of the strings)

chorus
E-----------------------------------------------------------------------|
B-----------------------------------------------------------------------|
G-----------------------------------------------------------------------|
D--1212121212121212-1212121212121212-1212121212121212-1212121212121212--|
A--1010101010101010-1010101010101010-1010101010101010-1010101010101010--|
E-----------------------------------------------------------------------|

bass solo riff
E------------------------------|
B------------------------------|
G------------------------------|
D------------------------------|
A--7-8----7-8----7-8----7-8----|
E--5-6----5-6----5-6----5-6----|

bass solo riff(continued)
E----------------------------------------|
B----------------------------------------|
G----------------------------------------|2x
D----------------------------------------|
A-7-8-888888-8-888888-8-888888-8-888888--|
E-5-6-666666-6-666666-6-666666-6-666666--|

timing:
intro......4x
verse......1x
intro......4x
verse......1x
intro......4x
chorus.....2x
bass solo..1x
intro......4x

this is one of there best songs. even though it was originally done by wire in the 70's, 
still made it kick ass,    

Added On December 5th, 2013

SHARE

Comments

blog comments powered by Disqus

VERSIONS

ADVERTISEMENT