Minus The Bear Tabs

Ice Monster

1 versions

TAB

            Standard... no Drop D, no tapping.

Verse

|-----------------------------------------------|
|-------------------------------7------------2--|
|-------2----------2----------6--6-------2-4--4-|
|-----4--4-------4--4-------4-----4----4--------| x8
|---2-----2----2-----2--4-5----------2----------|
|-3----------3----------------------------------|
Ends with
|-----------|
|-----------|
|-4-2-------|
|-----4-----|
|-------2---|
|---------0-|
Chorus
She's gone...
|-2-2--2-2-------0-0-|
|-3-3--1-1-------0-0-|
|-4-4--2-2--0-0--0-0-|
|-4-4--0-0--0-0--2-2-| x4ish...
|-2-2-------2-2--2-2-|
|-----------3-3--0-0-|
Ends with
|-----------|
|-----------|
|-4-2-------|
|-----4-----|
|-------2---|
|---------0-|

Repeat    

Added On December 16th, 2013

SHARE

Comments

blog comments powered by Disqus

ADVERTISEMENT