TAB

            Chords for chorus:

Dm Am Ab Em
|-5--5--4--0-|
|-6--5--4--0-|
|-7--5--5--0-|
|-7--7--6--2-|
|-5--7--6--2-|
|----5--4--0-|

Long noodle part (repeat as needed):
|---------------------------------|
|---------------------------------|
|-------4-------4-------4-------4-|
|-4h5h6---4h5h6---4h5h6---4h5h6---|
|---------------------------------|
|---------------------------------|

|-------------------------------------------------|
|-------------------------------------------------|
|-------4h5h6-------4h5h6-------------------------|
|-4h5h6-------4h5h6-------------4h5h6-------4h5h6-|
|-------------------------4h5h6-------4h5h6-------|
|-------------------------------------------------|

|----------------------------------------------|
|----------------------------------------------|
|--------------------------------------4h5h6---|
|--------------------------------4h5h6-------6-|
|-------2h3h4-------2h3h4--4h5h6---------------|
|-2h3h4-------2h3h4----------------------------|




End with:
|---------------------0---0-|
|---------------------0---5-|
|---------------------4---4-|
|--------------4h5h6--2---2-|
|-------2h3h4---------2---2-|
|-2h3h4---------------0---0-|    

Added On December 16th, 2013

SHARE

Comments

blog comments powered by Disqus

ADVERTISEMENT