Misc Soundtrack Tabs

Pirates Of The Caribbean Theme Intro

2 versions

TAB

            -This is my first tab, but i'm pretty sure it's all correct, i've been searching for a 
tab for POTC's main title for a while with no luck so I've listened by ear and came up 
this tab.

-Standard tuning as you can see.

-This track is also known as "He's a Pirate" just so you deffinately know which track i've tabbed.

-Also sounds better with Acoustic.


Palm mute the 5's
 -------------------------------------------------------------|
E--------------|--------------|--------------|----------------|
B--------------|--------------|--------------|-7--------------|
G--------------|--------------|--------------|-7--------------|
D--------------|--------------|--------------|----------------|
A-5-55-55-5555-|-5-55-55-5555-|-5-55-55-5555-|-5--------------|
E--------------|--------------|--------------|----------------|

E---------------|--------------|-------|
B---------------|-6-6--68-55---|-------|
G-----5-7-7-7-8-|------------7-|-5-5h7-|
D-4/7-----------|--------------|-------|
A---------------|--------------|-------|
E---------------|--------------|-------|


E-------------|---------------|-------|
B-------------|-6-6--6-8-55---|-------|
G---5-7-7-7-8-|-------------7-|-5-5h7-|
D-7-----------|---------------|-------|
A-------------|---------------|-------|
E-------------|---------------|-------|

E-------------|----------5-6-|-6-5---5--|
B-------------|-6-6h8-8-8----|-----8----|
G---5-7-7-7-8-|--------------|--------7-|
D-7-----------|--------------|----------|
A-------------|--------------|----------|
E-------------|--------------|----------|

E-----------5---|--------------|
B-----6-6-8-----|---6-5-5-5--5-|
G-5-7---------7-|-8---------7--|
D---------------|--------------|
A---------------|--------------|
E---------------|--------------|


Thanks
Dan    

Added On December 16th, 2013

SHARE

Comments

blog comments powered by Disqus

VERSIONS

ADVERTISEMENT