Misc Television Tabs

Bagpuss Theme

1 versions

TAB

            BAGPUSS
                           (The theme music)
Tabbed by: Adama davidhasellhoff93@gmail.com 
Any comments, questions, whatever, e-mail me
Tuning: EADGBE (Standard) Rate high because this is my first tab.

E---------5---2---0----------------------------------------| 
B-5---2---------------2---3---0---2------------------------| 
G-------------------------------------2-------1---2--------|
D-----------------------------------------2----------------|
A----------------------------------------------------------|
E----------------------------------------------------------| 

E----------------------------------------------------------| 
B-2---5----2---3-------------------------------------------| 
G------------------2-------1---2---------------------------|
D----------------------2-----------------------------------| 
A----------------------------------------------------------| 
E----------------------------------------------------------|

Repeat as you think you should    

Added On December 16th, 2013

SHARE

Comments

blog comments powered by Disqus

ADVERTISEMENT