Misc Television Tabs

Casper En Emma - Slaapliedje

1 versions

TAB

            This is a song form a childrens' series 'Casper en Emma'
https://youtu.be/tE6MBuBhn60

4/4 t=92

[Intro]
Csus4 G

[Verse 1]
Cm                      G
Tijd om te gaan slapen, doe je ogen dicht
Fm                       Cm                G
Kijk de zon is onder, alleen de maan geeft licht
Fm                        Cm
Ga maar lekker dromen van deze mooie dag
Fm                  Dm          Fm            G
Dan wordt je morgen zeker weer wakker met een lach

[Instrumental]
e|4-1-3---1-------|----------------|
B|------4---3-4---|3-1-0---1-0-----|
G|----------------|----------------|
D|----------------|----------------|
A|----------------|----------------|
E|----------------|----------------|

Cm                         G
Droom maar over Emma, dan droomt zij met je mee
Fm                      Cm              G
Droom maar over spelen, lekker met zijn twee
Fm                     Cm
Droom van avonturen en droom maar over pret
Dm                   Fm          Cm     G     Cm
Want er kan niets gebeuren, hier veilig in je bed

[Verse 2]
Cm                      G
Tijd om te gaan slapen, doe je ogen dicht
Fm                       Cm                G
Kijk de zon is onder, alleen de maan geeft licht
Fm                        Cm
Ga maar lekker dromen van deze mooie dag
Fm                  Dm          Fm            G
Dan wordt je morgen zeker weer wakker met een lach

[Instrumental]
e|4-1-3---1-------|----------------|
B|------4---3-4---|3-1-0---1-0-----|
G|----------------|----------------|
D|----------------|----------------|
A|----------------|----------------|
E|----------------|----------------|

Cm                         G
Droom maar over Casper, dan droomt hij met je mee
Fm                      Cm              G
Droom maar over spelen, lekker met zijn twee
Fm                     Cm
Droom van avonturen en droom maar over pret
Dm                   Fm          Cm     G     Cm
Want er kan niets gebeuren, hier veilig in je bed

[Verse 3]
Bbm                     F
Tijd om te gaan slapen, doe je ogen dicht
Ebm                      Bbm               F
Kijk de zon is onder, alleen de maan geeft licht
Ebm                        Bbm
Ga maar lekker dromen van deze mooie dag
Ebm                 Cm         Ebm            F
Dan wordt je morgen zeker weer wakker met een lach

[Instrumental]
e|2---1-----------|----------------|
B|--4---2-4-1-2---|1---------------|
G|----------------|--3-2---3-2-----|
D|----------------|----------------|
A|----------------|----------------|
E|----------------|----------------|

Bbm                          F
Droom maar over Casper, dan droomt hij met je mee
Ebm                     Bbm             F
Droom maar over spelen, lekker met zijn twee
Ebm                    Bbm
Droom van avonturen en droom maar over pret
Cm             Ebm          Bbm    F     Bbm
Er kan niets gebeuren, hier veilig in je bed

[Verse 4]
C#m                     G#
Tijd om te gaan slapen, doe je ogen dicht
F#m                     C#m                 G#
Kijk de zon is onder, alleen de maan geeft licht
F#m                       C#m
Ga maar lekker dromen van deze mooie dag
F#m                 D#m         F#m            G#
Dan wordt je morgen zeker weer wakker met een lach

[Instrumental]
E|5-2-4---2-------|----------------|
B|------5---4-5---|4-2-----2-------|
G|----------------|----5-----5-----|
D|----------------|----------------|
A|----------------|----------------|
E|----------------|----------------|

C#m                        G#
Droom maar over Emma, dan droomt zij met je mee
F#m                      C#m             G#
Droom maar over spelen, lekker met zijn twee
F#m                     C#m
Droom van avonturen en droom maar over pret
D#m                F#m           C#m    G#    C#m
Want er kan niets gebeuren, hier veilig in je bed    

Added On July 28th, 2017

SHARE

Comments

blog comments powered by Disqus

ADVERTISEMENT