Misc Television Tabs

Coca-cola - Happiness Factory Song Solo

1 versions

TAB

            I'm a beginner and this is my first tab, but it should be pretty correct.
You can find the ad here:
http://youtube.com/watch?v=NwCn-D5xFdc
Tabbed by: rdpdk (raits93@yahoo.com)2008



E---12--8--10--12--8-----8--15-13-12-10--|
B----------------------------------------|
G----------------------------------------|
D----------------------------------------|
A----------------------------------------|
E----------------------------------------|


E---12--8--10--12--8-----8--15-13-12-10--|
B----------------------------------------|
G----------------------------------------|
D----------------------------------------|
A----------------------------------------|
E----------------------------------------|


E---12--8-10--12--8--10--12--|
B----------------------------|
G----------------------------|
D----------------------------|
A----------------------------|
E----------------------------|


E---12--8--10--12--8--|
B---------------------|
G---------------------|
D---------------------|
A---------------------|
E---------------------|

etc, etc...


I hope you like it.    

Added On December 16th, 2013

SHARE

Comments

blog comments powered by Disqus

ADVERTISEMENT