Misc Television Tabs

Community - Course Listing Unavailable

1 versions

TAB

            From TV Show Community Season 3 Episode 18 at 19:11

Starts after Abed says "He's Right"

|-------------------------------------------------------|
|-----7--10--------7--10--------7--10---------7--10-----|
|--7------------6---------------------------------------|          Part 1
|----------------------------9------------8-------------|
|-------------------------------------------------------|
|-------------------------------------------------------|

Short Pause

|-----------------------------------------------------------------------|
|-----3---3---3-------3---3---3-------3---3---3-------3---3---3---------|
|---2---2---2---2---2---2---2---2---2---2---2---2---2---2---2---2-------|           Part 2
|-0---------------0---------------0---------------0---------------------|
|-----------------------------------------------------------------------|
|-----------------------------------------------------------------------|

|------------2--5---------------------------------2----2--------------------|
|--3------5-----------3--2--------2--0------2--3----------5-----2---3-------|
|---------------------------2-----------------------------------------------|          Part 3
|---------------------------------------------------------------------------|
|---------------------------------------------------------------------------|
|---------------------------------------------------------------------------|

   D                     F#          G                    A         D

Use strumming pattern of Part 2 using only 3 notes. e.g

           F#
|----------------------|   
|----------------------|
|----------------------|
|------4---4---4-------|
|----4---4---4---4-----|
|--2----------------2--|

I'm not sure about the chords but there definitely is another layer behind the melody.    

Added On September 29th, 2015

SHARE

Comments

blog comments powered by Disqus

ADVERTISEMENT