Misc Television Tabs

Game Of Thrones - Rains Of Castamere

1 versions

TAB

            -------------------------------------------------------------------------------
                             Rains of Castamere - Game of Thrones
-------------------------------------------------------------------------------
Tabbed by:
E-mail:

Tuning:standard

e|--1----0------1-3-0-----3-1-0----------5-5-6--3----5--5/6--3---6-5---------|
B|------------------------------3/5--5-------------------------------8-6-5---|
G|2----2-----2---------2-----------------------------------------------------|
D|--0----0------0---------0--------------------------------------------------|
A|-----------------------------------3----------3------------3---5-------5---|
E|---------------------------------------3-----------3-----------------------|

e|---------------------------------------------------------------6-5---------|
B|-------------------------------------------------------------------8-6-3---|
G|---------------------------------------------------------------------------|
D|-----------------------------------------------------------------------0---|
A|---------------------------------------------------------------5-----------|
E|---------------------------------------------------------------------------|

e|--0h1----1-1p0-----------0h1-----1-1p0-------------------------------------|
B|------3----------------------3---------------------------------------------|
G|2--------------2-------2---------------------------------------------------|
D|--0------0-0-------------0-------0-0---------------------------------------|
A|---------------------------------------------------------------------------|
E|---------------------------------------------------------------------------|

e|--0h1------5-5-3----3-1-----5p3-0h1----------------------------------------|
B|------3----------3-------3----------3--------------------------------------|
G|2--------------------------------------------------------------------------|
D|--0------------------------------------------------------------------------|
A|---------------------------------------------------------------------------|
E|---------------------------------------------------------------------------|

e|---------------------------------------------------------------------------|
B|---------------------------------------------------------------------------|
G|-----------------------------------2-0--2-3-0---3-2-0----------------------|
D|----3---2----3-5-2----5-3-2-0--2-----------------------3-2-----------------|
A|--0---0----0--------0----------3---3-3--3----------------------------------|
E|------------------------------------------------3--------------------------|

e|---------------------------------------------------------------------------|
B|---------------------------------------------------------------------------|
G|------------------------------------------------3-2-0----------------------|
D|-------------------------------------------------------3-0-----------------|
A|---------------------------------------------------------------------------|
E|------------------------------------------------3--------------------------|




************************************

| /   slide up
| \   slide down
| h   hammer-on
| p   pull-off
| ~   vibrato
| +   harmonic
| x   Mute note
| b   Bend
| pb  Pre-bend
| br  Bend release
| pbr Pre-bend release
| brb Bend release bend

************************************    

Added On March 1st, 2015

SHARE

Comments

blog comments powered by Disqus

ADVERTISEMENT