Misc Television Tabs

Home Depot Theme

1 versions

TAB

            Saw the commercial on day and I had to figure out home to play it. Theres like six 
ways to play it, but this is how i figured it out.

~ = vibrato

e |-1~--2-1---------------------|
B |--------4~--2-4-6-7-6-2------|
G |------------------------3~---|
D |-----------------------------|
A |-----------------------------|
E |-----------------------------|

e |-1~--2-1-------------------------------|
B |--------4~--2-1~--4-6-7-6-4-2-4-2-1-2~-|
G |---------------------------------------|
D |---------------------------------------|
A |---------------------------------------|
E |---------------------------------------|    

Added On December 16th, 2013

SHARE

Comments

blog comments powered by Disqus

ADVERTISEMENT