Misc Television Tabs

Home Improvement Theme

1 versions

TAB

            home improvement theme

tabbed by Ryan Boone

e|------------------------------------------------------------|
B|------------------------------------------------------------|
G|-----------------10--------------------------------------10-|
D|----10-12--12-12--------10-12--12-12-10-----10-12--12-12----|
A|-12------------------12------------------12-----------------|
E|------------------------------------------------------------|

e|-----------------------------------------|
B|-----------------------------------------|
G|-12-10----10---------------10--10-12-----|
D|-------12----12------10-12---------------|
A|------------------12---------------------|
E|-----------------------------------------|

e|--------------------------|
B|-7-7-6-6-5-5-4-4----------|
G|-7-7-6-6-5-5-4-4----------|
D|-6-6-5-5-4-4-3-3---3-4-5--|
A|-7-7-6-6-5-5-4-4---3-4-5--|
E|-------------------1-2-3--|    

Added On December 16th, 2013

SHARE

Comments

blog comments powered by Disqus

ADVERTISEMENT