Misc Television Tabs

House Md Theme

1 versions

TAB

            E|-----0---------0-|-----0---------0-|-----0---------0-|
B|---------3---3---|---------3---3---|---------3---3---|
G|-2-2---2---2-----|-2-2---2---2-----|-2-2---2---2-----|
D|-----------------|-----------------|-----------------|
A|-----------------|-----------------|-----------------|
D|-----------------|-----------------|-----------------| x2



E|-----0---------0-|-----0---------0-|-----0---------0-|
B|---------3---3---|---------3---3---|---------3---3---|
G|---2---2---2-----|---2---2---2-----|---2---2---2-----|
D|-----------------|-----------------|-----------------|
A|-0---------------|-----------------|-----------------|
D|-----------------|-5---------------|-0---------------| x2    

Added On December 16th, 2013

SHARE

Comments

blog comments powered by Disqus

ADVERTISEMENT