Misc Television Tabs

Inspector Gadget Theme Intro

1 versions

TAB

            -------------------------------------------------------------------------------
			     Inspector Gadget Theme
-------------------------------------------------------------------------------
Tabbed by:brainwasher
Email:

Tuning: Standard

Pretty easy beginners song in the B harmonic minor scale. Play the notes fluidly, and 
mute the "x" notes.
e|---------------------------------------------------------------------------|
B|---------------------------------------------------------------------------|
G|---------------------------------------------------------------------------|
D|---------------------------------------------------------8/9--8~-----------|
A|-----------7x-9x-----8x-----7~--------------------7x-9x--------------------|
E|-7x-9x-10x-------10x----10x----10-------7x-9x-10x--------------------------|

Finish with:
e|---------------------------------------------------------------------------|
B|---------------------------------------------------------------------------|
G|---------------------------------------------------------------------------|
D|-----8-9x------------------------------------------------------------------|
A|---------------------------------------------------------------------------|
E|---------------------------------------------------------------------------|

Have fun!

| /  slide up
| \  slide down
| h  hammer-on
| p  pull-off
| ~  vibrato
| +  harmonic
| x  Mute note
===============================================================================    

Added On December 16th, 2013

SHARE

Comments

blog comments powered by Disqus

ADVERTISEMENT